  0
SECTION
  2
ENTITIES
  0
ARC
  8
0
 10
-357.8524
 20
-9.246359
 30
0.0
 40
357.9747
 50
310.3673
 51
1.481045
  0
LINE
  8
0
 10
-125.9984
 20
-281.991
 30
0.0
 11
-399.1306
 21
-479.9935
 31
0.0
  0
ARC
  8
0
 10
-167.2757
 20
-752.7372
 30
0.0
 40
357.9747
 50
130.3674
 51
181.481
  0
ARC
  8
0
 10
-167.2848
 20
-771.584
 30
0.0
 40
357.9747
 50
178.464
 51
229.5776
  0
LINE
  8
0
 10
-399.4019
 20
-1044.105
 30
0.0
 11
-126.4602
 21
-1242.37
 31
0.0
  0
ARC
  8
0
 10
-357.8524
 20
-1514.74
 30
0.0
 40
357.9747
 50
358.5189
 51
49.63293
  0
CIRCLE
  8
0
 10
1000
 20
6000
 30
0.0
 40
100
  0
CIRCLE
  8
0
 10
1500
 20
6000
 30
0.0
 40
100
  0
CIRCLE
  8
0
 10
2500
 20
8000
 30
0.0
 40
100
  0
CIRCLE
  8
0
 10
3000
 20
8000
 30
0.0
 40
100
  0
CIRCLE
  8
0
 10
4000
 20
6000
 30
0.0
 40
100
  0
CIRCLE
  8
0
 10
100
 20
100
 30
0.0
 40
129
  0
CIRCLE
  8
0
 10
200
 20
200
 30
0.0
 40
200
  0
CIRCLE
  8
0
 10
300
 20
300
 30
0.0
 40
200
  0
CIRCLE
  8
0
 10
350
 20
350
 30
0.0
 40
200
  0
CIRCLE
  8
0
 10
360
 20
360
 30
0.0
 40
200
  0
CIRCLE
  8
0
 10
370
 20
370
 30
0.0
 40
200
  0
ENDSEC
  0
EOF
