  0
SECTION
  2
ENTITIES
  0
LINE
  8
0
 10
0
 20
698.5
 30
0.0
 11
-507.2264
 21
1.049042E-05
 31
0.0
  0
LINE
  8
0
 10
-507.2264
 20
1.049042E-05
 30
0.0
 11
507.2264
 21
1.049042E-05
 31
0.0
  0
LINE
  8
0
 10
507.2264
 20
1.049042E-05
 30
0.0
 11
0
 21
-698.5
 31
0.0
  0
LINE
  8
0
 10
0
 20
-698.5
 30
0.0
 11
-1014.453
 21
-698.5
 31
0.0
  0
LINE
  8
0
 10
-1014.453
 20
-698.5
 30
0.0
 11
-1521.679
 21
-1397
 31
0.0
  0
LINE
  8
0
 10
-1521.679
 20
-1397
 30
0.0
 11
-507.2264
 21
-1397
 31
0.0
  0
LINE
  8
0
 10
-507.2264
 20
-1397
 30
0.0
 11
-1014.453
 21
-2095.5
 31
0.0
  0
LINE
  8
0
 10
-1014.453
 20
-2095.5
 30
0.0
 11
0
 21
-2095.5
 31
0.0
  0
CIRCLE
  8
0
 10
1000
 20
7000
 30
0.0
 40
100
  0
CIRCLE
  8
0
 10
3000
 20
7000
 30
0.0
 40
100
  0
CIRCLE
  8
0
 10
5000
 20
7000
 30
0.0
 40
100
  0
CIRCLE
  8
0
 10
100
 20
100
 30
0.0
 40
125
  0
CIRCLE
  8
0
 10
200
 20
200
 30
0.0
 40
200
  0
CIRCLE
  8
0
 10
300
 20
300
 30
0.0
 40
200
  0
CIRCLE
  8
0
 10
350
 20
350
 30
0.0
 40
200
  0
CIRCLE
  8
0
 10
360
 20
360
 30
0.0
 40
200
  0
CIRCLE
  8
0
 10
370
 20
370
 30
0.0
 40
200
  0
ENDSEC
  0
EOF
