  0
SECTION
  2
ENTITIES
  0
ARC
  8
0
 10
324.0988
 20
510.0286
 30
0.0
 40
154.5472
 50
315.1324
 51
359.2481
  0
LINE
  8
0
 10
433.6319
 20
400.9995
 30
0.0
 11
109.1277
 21
106.9996
 31
0.0
  0
ARC
  8
0
 10
218.6607
 20
-2.029684
 30
0.0
 40
154.5472
 50
135.1321
 51
179.2478
  0
ARC
  8
0
 10
218.6607
 20
2.028485
 30
0.0
 40
154.5472
 50
180.7522
 51
224.868
  0
LINE
  8
0
 10
109.1277
 20
-106.9998
 30
0.0
 11
433.6319
 21
-400.9997
 31
0.0
  0
ARC
  8
0
 10
324.0988
 20
-510.0288
 30
0.0
 40
154.5472
 50
.7521361
 51
44.86792
  0
CIRCLE
  8
0
 10
1000
 20
7000
 30
0.0
 40
100
  0
CIRCLE
  8
0
 10
2000
 20
6000
 30
0.0
 40
100
  0
CIRCLE
  8
0
 10
3000
 20
7000
 30
0.0
 40
100
  0
CIRCLE
  8
0
 10
100
 20
100
 30
0.0
 40
125
  0
CIRCLE
  8
0
 10
200
 20
200
 30
0.0
 40
200
  0
CIRCLE
  8
0
 10
300
 20
300
 30
0.0
 40
200
  0
CIRCLE
  8
0
 10
350
 20
350
 30
0.0
 40
200
  0
CIRCLE
  8
0
 10
360
 20
360
 30
0.0
 40
200
  0
CIRCLE
  8
0
 10
370
 20
370
 30
0.0
 40
200
  0
ENDSEC
  0
EOF
