  0
SECTION
  2
ENTITIES
  0
LINE
  8
0
 10
-1191.243
 20
459.7565
 30
0.0
 11
-840.7565
 21
459.7565
 31
0.0
  0
LINE
  8
0
 10
-840.7565
 20
459.7565
 30
0.0
 11
-556.2435
 21
175.2435
 31
0.0
  0
LINE
  8
0
 10
-556.2435
 20
175.2435
 30
0.0
 11
-556.2435
 21
-175.2435
 31
0.0
  0
LINE
  8
0
 10
-556.2435
 20
-175.2435
 30
0.0
 11
-556.2435
 21
175.2435
 31
0.0
  0
LINE
  8
0
 10
-556.2435
 20
175.2435
 30
0.0
 11
-205.7565
 21
175.2435
 31
0.0
  0
LINE
  8
0
 10
-205.7565
 20
175.2435
 30
0.0
 11
78.75652
 21
459.7565
 31
0.0
  0
LINE
  8
0
 10
78.75652
 20
459.7565
 30
0.0
 11
-205.7565
 21
175.2435
 31
0.0
  0
LINE
  8
0
 10
-205.7565
 20
175.2435
 30
0.0
 11
-205.7565
 21
-175.2435
 31
0.0
  0
LINE
  8
0
 10
-205.7565
 20
-175.2435
 30
0.0
 11
78.75652
 21
-459.7565
 31
0.0
  0
LINE
  8
0
 10
78.75652
 20
-459.7565
 30
0.0
 11
-205.7565
 21
-175.2435
 31
0.0
  0
LINE
  8
0
 10
-205.7565
 20
-175.2435
 30
0.0
 11
-556.2435
 21
-175.2435
 31
0.0
  0
LINE
  8
0
 10
-556.2435
 20
-175.2435
 30
0.0
 11
-840.7565
 21
-459.7565
 31
0.0
  0
LINE
  8
0
 10
-840.7565
 20
-459.7565
 30
0.0
 11
-840.7565
 21
-810.2435
 31
0.0
  0
LINE
  8
0
 10
-840.7565
 20
-810.2435
 30
0.0
 11
-840.7565
 21
-459.7565
 31
0.0
  0
LINE
  8
0
 10
-840.7565
 20
-459.7565
 30
0.0
 11
-1191.243
 21
-459.7565
 31
0.0
  0
LINE
  8
0
 10
-1191.243
 20
-459.7565
 30
0.0
 11
-1191.243
 21
-810.2435
 31
0.0
  0
CIRCLE
  8
0
 10
1000
 20
7000
 30
0.0
 40
100
  0
CIRCLE
  8
0
 10
3500
 20
7000
 30
0.0
 40
100
  0
CIRCLE
  8
0
 10
6000
 20
7000
 30
0.0
 40
100
  0
CIRCLE
  8
0
 10
100
 20
100
 30
0.0
 40
125
  0
CIRCLE
  8
0
 10
200
 20
200
 30
0.0
 40
200
  0
CIRCLE
  8
0
 10
300
 20
300
 30
0.0
 40
200
  0
CIRCLE
  8
0
 10
350
 20
350
 30
0.0
 40
200
  0
CIRCLE
  8
0
 10
360
 20
360
 30
0.0
 40
200
  0
CIRCLE
  8
0
 10
370
 20
370
 30
0.0
 40
200
  0
ENDSEC
  0
EOF
