  0
SECTION
  2
ENTITIES
  0
LINE
  8
0
 10
-376.2343
 20
444.5
 30
0.0
 11
-376.2343
 21
-5.079993
 31
0.0
  0
LINE
  8
0
 10
-376.2343
 20
-5.079993
 30
0.0
 11
4.299815
 21
444.5
 31
0.0
  0
LINE
  8
0
 10
4.299815
 20
444.5
 30
0.0
 11
384.834
 21
-5.079993
 31
0.0
  0
LINE
  8
0
 10
384.834
 20
-5.079993
 30
0.0
 11
4.299815
 21
-454.66
 31
0.0
  0
LINE
  8
0
 10
4.299815
 20
-454.66
 30
0.0
 11
-376.2343
 21
-5.079993
 31
0.0
  0
LINE
  8
0
 10
-376.2343
 20
-5.079993
 30
0.0
 11
-376.2343
 21
-454.66
 31
0.0
  0
LINE
  8
0
 10
-376.2343
 20
-454.66
 30
0.0
 11
4.299815
 21
-454.66
 31
0.0
  0
LINE
  8
0
 10
4.299815
 20
-454.66
 30
0.0
 11
384.834
 21
-454.66
 31
0.0
  0
LINE
  8
0
 10
384.834
 20
-454.66
 30
0.0
 11
384.834
 21
-904.2399
 31
0.0
  0
LINE
  8
0
 10
384.834
 20
-904.2399
 30
0.0
 11
4.299815
 21
-454.66
 31
0.0
  0
LINE
  8
0
 10
4.299815
 20
-454.66
 30
0.0
 11
-376.2343
 21
-904.2399
 31
0.0
  0
LINE
  8
0
 10
-376.2343
 20
-904.2399
 30
0.0
 11
4.299815
 21
-1353.82
 31
0.0
  0
LINE
  8
0
 10
4.299815
 20
-1353.82
 30
0.0
 11
384.834
 21
-904.2399
 31
0.0
  0
LINE
  8
0
 10
384.834
 20
-904.2399
 30
0.0
 11
384.834
 21
-1353.82
 31
0.0
  0
LINE
  8
0
 10
384.834
 20
-1353.82
 30
0.0
 11
4.299815
 21
-1353.82
 31
0.0
  0
LINE
  8
0
 10
4.299815
 20
-1353.82
 30
0.0
 11
-376.2343
 21
-1353.82
 31
0.0
  0
CIRCLE
  8
0
 10
1000
 20
7000
 30
0.0
 40
100
  0
CIRCLE
  8
0
 10
2500
 20
7000
 30
0.0
 40
100
  0
CIRCLE
  8
0
 10
4000
 20
7000
 30
0.0
 40
100
  0
CIRCLE
  8
0
 10
100
 20
100
 30
0.0
 40
127
  0
CIRCLE
  8
0
 10
200
 20
200
 30
0.0
 40
200
  0
CIRCLE
  8
0
 10
300
 20
300
 30
0.0
 40
200
  0
CIRCLE
  8
0
 10
350
 20
350
 30
0.0
 40
200
  0
CIRCLE
  8
0
 10
360
 20
360
 30
0.0
 40
200
  0
CIRCLE
  8
0
 10
370
 20
370
 30
0.0
 40
200
  0
ENDSEC
  0
EOF
