  0
SECTION
  2
ENTITIES
  0
ARC
  8
0
 10
532.7149
 20
781.4556
 30
0.0
 40
459.0017
 50
182.4294
 51
216.5671
  0
ARC
  8
0
 10
-204.5893
 20
234.5446
 30
0.0
 40
459.0017
 50
2.42925
 51
36.56697
  0
LINE
  8
0
 10
254
 20
254
 30
0.0
 11
127
 21
254
 31
0.0
  0
LINE
  8
0
 10
127
 20
254
 30
0.0
 11
0
 21
254
 31
0.0
  0
ARC
  8
0
 10
-458.589
 20
273.458
 30
0.0
 40
459.0017
 50
323.4327
 51
357.5705
  0
ARC
  8
0
 10
278.7095
 20
-273.4607
 30
0.0
 40
459.0017
 50
143.4324
 51
177.5701
  0
LINE
  8
0
 10
-179.8795
 20
-253.9996
 30
0.0
 11
-52.87947
 21
-253.9996
 31
0.0
  0
LINE
  8
0
 10
-52.87947
 20
-253.9996
 30
0.0
 11
74.12054
 21
-253.9996
 31
0.0
  0
CIRCLE
  8
0
 10
1000
 20
7000
 30
0.0
 40
100
  0
CIRCLE
  8
0
 10
1500
 20
7000
 30
0.0
 40
100
  0
CIRCLE
  8
0
 10
2000
 20
7000
 30
0.0
 40
100
  0
CIRCLE
  8
0
 10
100
 20
100
 30
0.0
 40
128
  0
CIRCLE
  8
0
 10
200
 20
200
 30
0.0
 40
200
  0
CIRCLE
  8
0
 10
300
 20
300
 30
0.0
 40
200
  0
CIRCLE
  8
0
 10
350
 20
350
 30
0.0
 40
200
  0
CIRCLE
  8
0
 10
360
 20
360
 30
0.0
 40
200
  0
CIRCLE
  8
0
 10
370
 20
370
 30
0.0
 40
200
  0
ENDSEC
  0
EOF
