  0
SECTION
  2
ENTITIES
  0
ARC
  8
0
 10
-84.46613
 20
-302.1603
 30
0.0
 40
262.5784
 50
92.98338
 51
121.7961
  0
ARC
  8
0
 10
-112.19
 20
-302.1396
 30
0.0
 40
262.5784
 50
58.11836
 51
86.93111
  0
ARC
  8
0
 10
-97.40749
 20
-297.9617
 30
0.0
 40
251.4359
 50
.6362484
 51
60.4762
  0
ARC
  8
0
 10
-97.40327
 20
-292.0022
 30
0.0
 40
251.4359
 50
299.4386
 51
359.2785
  0
ARC
  8
0
 10
-112.1791
 20
-287.8021
 30
0.0
 40
262.5784
 50
272.9837
 51
301.7964
  0
ARC
  8
0
 10
-84.45538
 20
-287.8228
 30
0.0
 40
262.5784
 50
238.1185
 51
266.9312
  0
ARC
  8
0
 10
-99.23776
 20
-292.0007
 30
0.0
 40
251.4359
 50
180.6364
 51
240.4764
  0
ARC
  8
0
 10
-99.24198
 20
-297.96
 30
0.0
 40
251.4359
 50
119.4382
 51
179.2782
  0
ARC
  8
0
 10
-99.24198
 20
-297.96
 30
0.0
 40
251.4359
 50
119.4382
 51
179.2782
  0
ARC
  8
0
 10
-99.23776
 20
-292.0007
 30
0.0
 40
251.4359
 50
180.6364
 51
240.4764
  0
ARC
  8
0
 10
-347.0459
 20
-729.5753
 30
0.0
 40
251.4359
 50
.6362484
 51
60.4762
  0
ARC
  8
0
 10
-347.0416
 20
-723.6158
 30
0.0
 40
251.4359
 50
299.4386
 51
359.2785
  0
ARC
  8
0
 10
-347.0416
 20
-723.6158
 30
0.0
 40
251.4359
 50
299.4386
 51
359.2785
  0
ARC
  8
0
 10
-347.0459
 20
-729.5753
 30
0.0
 40
251.4359
 50
.6362484
 51
60.4762
  0
ARC
  8
0
 10
-361.8282
 20
-733.7532
 30
0.0
 40
262.5784
 50
58.11836
 51
86.93111
  0
ARC
  8
0
 10
-334.1043
 20
-733.774
 30
0.0
 40
262.5784
 50
92.98338
 51
121.7961
  0
ARC
  8
0
 10
-348.8804
 20
-729.5737
 30
0.0
 40
251.4359
 50
119.4382
 51
179.2782
  0
ARC
  8
0
 10
-348.8759
 20
-723.6144
 30
0.0
 40
251.4359
 50
180.6364
 51
240.4764
  0
ARC
  8
0
 10
-334.0937
 20
-719.4365
 30
0.0
 40
262.5784
 50
238.1185
 51
266.9312
  0
ARC
  8
0
 10
-361.8176
 20
-719.4155
 30
0.0
 40
262.5784
 50
272.9837
 51
301.7964
  0
CIRCLE
  8
0
 10
1000
 20
7000
 30
0.0
 40
100
  0
CIRCLE
  8
0
 10
2000
 20
7000
 30
0.0
 40
100
  0
CIRCLE
  8
0
 10
100
 20
100
 30
0.0
 40
125
  0
CIRCLE
  8
0
 10
200
 20
200
 30
0.0
 40
200
  0
CIRCLE
  8
0
 10
300
 20
300
 30
0.0
 40
200
  0
CIRCLE
  8
0
 10
350
 20
350
 30
0.0
 40
200
  0
CIRCLE
  8
0
 10
360
 20
360
 30
0.0
 40
200
  0
CIRCLE
  8
0
 10
370
 20
370
 30
0.0
 40
200
  0
ENDSEC
  0
EOF
