  0
SECTION
  2
ENTITIES
  0
ARC
  8
0
 10
-464.0114
 20
219.2815
 30
0.0
 40
546.5136
 50
3.641655
 51
31.8897
  0
ARC
  8
0
 10
-464.009
 20
288.7435
 30
0.0
 40
546.5136
 50
328.1067
 51
356.3547
  0
ARC
  8
0
 10
-464.009
 20
288.7435
 30
0.0
 40
546.5136
 50
328.1067
 51
356.3547
  0
ARC
  8
0
 10
570.4556
 20
203.1746
 30
0.0
 40
491.6902
 50
174.0671
 51
212.3955
  0
ARC
  8
0
 10
570.4556
 20
203.1746
 30
0.0
 40
491.6902
 50
174.0671
 51
212.3955
  0
ARC
  8
0
 10
529.6509
 20
194.0076
 30
0.0
 40
452.2483
 50
145.8714
 51
172.3775
  0
ARC
  8
0
 10
480.5138
 20
693.1153
 30
0.0
 40
407.4061
 50
217.0337
 51
232.9414
  0
ARC
  8
0
 10
125.3167
 20
220.2402
 30
0.0
 40
184.0166
 50
353.6221
 51
53.41317
  0
ARC
  8
0
 10
125.3167
 20
220.2402
 30
0.0
 40
184.0166
 50
353.6221
 51
53.41317
  0
ARC
  8
0
 10
382.9645
 20
332.3633
 30
0.0
 40
152.1977
 50
166.4593
 51
240.5758
  0
ARC
  8
0
 10
186.3603
 20
-121.8337
 30
0.0
 40
343.9347
 50
20.74675
 51
69.2534
  0
ARC
  8
0
 10
139.1754
 20
-253.9967
 30
0.0
 40
447.8181
 50
325.4456
 51
34.55434
  0
ARC
  8
0
 10
186.3591
 20
-629.8289
 30
0.0
 40
343.9347
 50
20.74675
 51
69.2534
  0
ARC
  8
0
 10
382.9193
 20
-175.6367
 30
0.0
 40
152.1977
 50
166.4593
 51
240.5758
  0
ARC
  8
0
 10
125.2715
 20
-287.7598
 30
0.0
 40
184.0166
 50
353.6221
 51
53.41317
  0
ARC
  8
0
 10
125.2715
 20
-287.7598
 30
0.0
 40
184.0166
 50
353.6221
 51
53.41317
  0
ARC
  8
0
 10
480.4685
 20
185.1153
 30
0.0
 40
407.4061
 50
217.0337
 51
232.9414
  0
ARC
  8
0
 10
529.6057
 20
-313.9925
 30
0.0
 40
452.2483
 50
145.8714
 51
172.3775
  0
ARC
  8
0
 10
570.4104
 20
-304.8254
 30
0.0
 40
491.6902
 50
174.0671
 51
212.3955
  0
ARC
  8
0
 10
570.4104
 20
-304.8254
 30
0.0
 40
491.6902
 50
174.0671
 51
212.3955
  0
ARC
  8
0
 10
-464.0542
 20
-219.2565
 30
0.0
 40
546.5136
 50
328.1067
 51
356.3547
  0
CIRCLE
  8
0
 10
1000
 20
7000
 30
0.0
 40
100
  0
CIRCLE
  8
0
 10
2000
 20
7000
 30
0.0
 40
100
  0
CIRCLE
  8
0
 10
3000
 20
7000
 30
0.0
 40
100
  0
CIRCLE
  8
0
 10
100
 20
100
 30
0.0
 40
125
  0
CIRCLE
  8
0
 10
200
 20
200
 30
0.0
 40
200
  0
CIRCLE
  8
0
 10
300
 20
300
 30
0.0
 40
200
  0
CIRCLE
  8
0
 10
350
 20
350
 30
0.0
 40
200
  0
CIRCLE
  8
0
 10
360
 20
360
 30
0.0
 40
200
  0
CIRCLE
  8
0
 10
370
 20
370
 30
0.0
 40
200
  0
ENDSEC
  0
EOF
