  0
SECTION
  2
ENTITIES
  0
LINE
  8
0
 10
-507.9985
 20
253.9993
 30
0.0
 11
-507.9985
 21
-253.9993
 31
0.0
  0
LINE
  8
0
 10
-507.9985
 20
-253.9993
 30
0.0
 11
-507.9985
 21
-761.9978
 31
0.0
  0
LINE
  8
0
 10
-507.9985
 20
-761.9978
 30
0.0
 11
-126.9997
 21
-762.0008
 31
0.0
  0
ARC
  8
0
 10
-420.5543
 20
-759.015
 30
0.0
 40
293.5949
 50
359.4163
 51
58.75303
  0
ARC
  8
0
 10
-115.9607
 20
-257.0029
 30
0.0
 40
293.5949
 50
179.4158
 51
238.7532
  0
ARC
  8
0
 10
-115.9609
 20
-251.0013
 30
0.0
 40
293.5949
 50
121.2499
 51
180.587
  0
ARC
  8
0
 10
-420.5792
 20
250.9957
 30
0.0
 40
293.5949
 50
301.2499
 51
.586735
  0
LINE
  8
0
 10
-126.9997
 20
254.0022
 30
0.0
 11
0
 21
253.9993
 31
0.0
  0
LINE
  8
0
 10
0
 20
253.9993
 30
0.0
 11
126.9997
 21
254.0022
 31
0.0
  0
ARC
  8
0
 10
420.5792
 20
250.9957
 30
0.0
 40
293.5949
 50
179.4134
 51
238.7502
  0
ARC
  8
0
 10
115.9609
 20
-251.0013
 30
0.0
 40
293.5949
 50
359.4133
 51
58.75005
  0
ARC
  8
0
 10
115.9607
 20
-257.0029
 30
0.0
 40
293.5949
 50
301.2471
 51
.5842128
  0
ARC
  8
0
 10
420.5543
 20
-759.015
 30
0.0
 40
293.5949
 50
121.2471
 51
180.5839
  0
LINE
  8
0
 10
126.9997
 20
-762.0008
 30
0.0
 11
507.9985
 21
-761.9978
 31
0.0
  0
LINE
  8
0
 10
507.9985
 20
-761.9978
 30
0.0
 11
507.9985
 21
-1778.001
 31
0.0
  0
LINE
  8
0
 10
507.9985
 20
-1778.001
 30
0.0
 11
126.9997
 21
-1778.004
 31
0.0
  0
ARC
  8
0
 10
420.5543
 20
-1775.018
 30
0.0
 40
293.5949
 50
121.2471
 51
180.5839
  0
ARC
  8
0
 10
115.9607
 20
-1273.006
 30
0.0
 40
293.5949
 50
301.2471
 51
.5842128
  0
ARC
  8
0
 10
115.9609
 20
-1267.004
 30
0.0
 40
293.5949
 50
359.4133
 51
58.75005
  0
ARC
  8
0
 10
420.5792
 20
-765.0073
 30
0.0
 40
293.5949
 50
179.4134
 51
238.7502
  0
LINE
  8
0
 10
126.9997
 20
-762.0008
 30
0.0
 11
0
 21
-761.9978
 31
0.0
  0
LINE
  8
0
 10
0
 20
-761.9978
 30
0.0
 11
-126.9997
 21
-762.0007
 31
0.0
  0
ARC
  8
0
 10
-420.5792
 20
-765.0073
 30
0.0
 40
293.5949
 50
301.2499
 51
.586735
  0
ARC
  8
0
 10
-115.9609
 20
-1267.004
 30
0.0
 40
293.5949
 50
121.2499
 51
180.587
  0
ARC
  8
0
 10
-115.9608
 20
-1273.006
 30
0.0
 40
293.5949
 50
179.4158
 51
238.7532
  0
ARC
  8
0
 10
-420.5543
 20
-1775.018
 30
0.0
 40
293.5949
 50
359.4163
 51
58.75303
  0
LINE
  8
0
 10
-126.9997
 20
-1778.004
 30
0.0
 11
-507.9985
 21
-1778.001
 31
0.0
  0
CIRCLE
  8
0
 10
1000
 20
7000
 30
0.0
 40
100
  0
CIRCLE
  8
0
 10
3000
 20
7000
 30
0.0
 40
100
  0
CIRCLE
  8
0
 10
5000
 20
7000
 30
0.0
 40
100
  0
CIRCLE
  8
0
 10
100
 20
100
 30
0.0
 40
128
  0
CIRCLE
  8
0
 10
200
 20
200
 30
0.0
 40
200
  0
CIRCLE
  8
0
 10
300
 20
300
 30
0.0
 40
200
  0
CIRCLE
  8
0
 10
350
 20
350
 30
0.0
 40
200
  0
CIRCLE
  8
0
 10
360
 20
360
 30
0.0
 40
200
  0
CIRCLE
  8
0
 10
370
 20
370
 30
0.0
 40
200
  0
ENDSEC
  0
EOF
