  0
SECTION
  2
ENTITIES
  0
ARC
  8
0
 10
268.2752
 20
-238.3223
 30
0.0
 40
530.5725
 50
91.36352
 51
133.7515
  0
ARC
  8
0
 10
-480.3408
 20
574.3831
 30
0.0
 40
574.5668
 50
271.4622
 51
311.6317
  0
LINE
  8
0
 10
-465.6705
 20
4.298147E-03
 30
0.0
 11
-766.9274
 21
4.298147E-03
 31
0.0
  0
ARC
  8
0
 10
-779.5552
 20
-530.418
 30
0.0
 40
530.5725
 50
46.24827
 51
88.63629
  0
ARC
  8
0
 10
-30.9324
 20
282.2814
 30
0.0
 40
574.5668
 50
228.3681
 51
268.5377
  0
LINE
  8
0
 10
-45.60735
 20
-292.0974
 30
0.0
 11
255.6496
 21
-292.0999
 31
0.0
  0
CIRCLE
  8
0
 10
1000
 20
7000
 30
0.0
 40
100
  0
CIRCLE
  8
0
 10
2000
 20
7000
 30
0.0
 40
100
  0
CIRCLE
  8
0
 10
3000
 20
7000
 30
0.0
 40
100
  0
CIRCLE
  8
0
 10
100
 20
100
 30
0.0
 40
125
  0
CIRCLE
  8
0
 10
200
 20
200
 30
0.0
 40
200
  0
CIRCLE
  8
0
 10
300
 20
300
 30
0.0
 40
200
  0
CIRCLE
  8
0
 10
350
 20
350
 30
0.0
 40
200
  0
CIRCLE
  8
0
 10
360
 20
360
 30
0.0
 40
200
  0
CIRCLE
  8
0
 10
370
 20
370
 30
0.0
 40
200
  0
ENDSEC
  0
EOF
