  0
SECTION
  2
ENTITIES
  0
LINE
  8
0
 10
256.1091
 20
902.5217
 30
0.0
 11
388.9636
 21
564.5
 31
0.0
  0
ARC
  8
0
 10
405.0987
 20
567.368
 30
0.0
 40
16.38786
 50
190.0791
 51
257.1388
  0
LINE
  8
0
 10
401.4509
 20
551.3913
 30
0.0
 11
436.9492
 21
539.7827
 31
0.0
  0
ARC
  8
0
 10
427.6861
 20
521.9521
 30
0.0
 40
20.09305
 50
358.7725
 51
62.54796
  0
LINE
  8
0
 10
447.7745
 20
521.5217
 30
0.0
 11
298.0109
 21
521.5217
 31
0.0
  0
ARC
  8
0
 10
326.3307
 20
514.9656
 30
0.0
 40
29.06877
 50
122.354
 51
166.9654
  0
LINE
  8
0
 10
310.7747
 20
539.5217
 30
0.0
 11
336.6545
 21
552.8217
 31
0.0
  0
LINE
  8
0
 10
336.6545
 20
552.8217
 30
0.0
 11
289.2
 21
674.5217
 31
0.0
  0
LINE
  8
0
 10
289.2
 20
674.5217
 30
0.0
 11
176.7746
 21
674.5217
 31
0.0
  0
LINE
  8
0
 10
176.7746
 20
674.5217
 30
0.0
 11
140.4109
 21
548.7609
 31
0.0
  0
LINE
  8
0
 10
140.4109
 20
548.7609
 30
0.0
 11
166.6836
 21
538.5
 31
0.0
  0
ARC
  8
0
 10
151.9898
 20
520.5493
 30
0.0
 40
23.19788
 50
2.402378
 51
50.69727
  0
LINE
  8
0
 10
175.1673
 20
521.5217
 30
0.0
 11
66.77455
 21
521.5217
 31
0.0
  0
ARC
  8
0
 10
86.86299
 20
521.9522
 30
0.0
 40
20.09305
 50
117.4521
 51
181.2278
  0
LINE
  8
0
 10
77.59999
 20
539.7827
 30
0.0
 11
110.7672
 21
551.3913
 31
0.0
  0
LINE
  8
0
 10
110.7672
 20
551.3913
 30
0.0
 11
151.1418
 21
673.9652
 31
0.0
  0
LINE
  8
0
 10
151.1418
 20
673.9652
 30
0.0
 11
187.7746
 21
705.5217
 31
0.0
  0
LINE
  8
0
 10
187.7746
 20
705.5217
 30
0.0
 11
227.04
 21
836.7217
 31
0.0
  0
LINE
  8
0
 10
227.04
 20
836.7217
 30
0.0
 11
254
 21
762
 31
0.0
  0
LINE
  8
0
 10
254
 20
762
 30
0.0
 11
275.1927
 21
705.5217
 31
0.0
  0
LINE
  8
0
 10
275.1927
 20
705.5217
 30
0.0
 11
187.7746
 21
705.5217
 31
0.0
  0
LINE
  8
0
 10
187.7746
 20
705.5217
 30
0.0
 11
151.1418
 21
673.9652
 31
0.0
  0
LINE
  8
0
 10
151.1418
 20
673.9652
 30
0.0
 11
210.2874
 21
853.9437
 31
0.0
  0
ARC
  8
0
 10
302.0423
 20
813.2952
 30
0.0
 40
100.3557
 50
117.2387
 51
156.1062
  0
ARC
  8
0
 10
302.0423
 20
813.2952
 30
0.0
 40
100.3557
 50
117.2387
 51
156.1062
  0
LINE
  8
0
 10
210.2874
 20
853.9437
 30
0.0
 11
151.1418
 21
673.9652
 31
0.0
  0
LINE
  8
0
 10
151.1418
 20
673.9652
 30
0.0
 11
-452.8691
 21
38.01746
 31
0.0
  0
LINE
  8
0
 10
-452.8691
 20
38.01746
 30
0.0
 11
-408.8146
 21
-74.7999
 31
0.0
  0
LINE
  8
0
 10
-408.8146
 20
-74.7999
 30
0.0
 11
196.1818
 21
-712.413
 31
0.0
  0
LINE
  8
0
 10
196.1818
 20
-712.413
 30
0.0
 11
210.2874
 21
-670.0562
 31
0.0
  0
ARC
  8
0
 10
302.0423
 20
-710.7048
 30
0.0
 40
100.3557
 50
117.2387
 51
156.1062
  0
CIRCLE
  8
0
 10
1000
 20
7000
 30
0.0
 40
100
  0
CIRCLE
  8
0
 10
2500
 20
8000
 30
0.0
 40
100
  0
CIRCLE
  8
0
 10
4000
 20
7000
 30
0.0
 40
100
  0
CIRCLE
  8
0
 10
100
 20
100
 30
0.0
 40
125
  0
CIRCLE
  8
0
 10
200
 20
200
 30
0.0
 40
200
  0
CIRCLE
  8
0
 10
300
 20
300
 30
0.0
 40
200
  0
CIRCLE
  8
0
 10
350
 20
350
 30
0.0
 40
200
  0
CIRCLE
  8
0
 10
360
 20
360
 30
0.0
 40
200
  0
CIRCLE
  8
0
 10
370
 20
370
 30
0.0
 40
200
  0
ENDSEC
  0
EOF
