  0
SECTION
  2
ENTITIES
  0
LINE
  8
0
 10
-563.2261
 20
309.2261
 30
0.0
 11
-563.2261
 21
198.7739
 31
0.0
  0
LINE
  8
0
 10
-563.2261
 20
198.7739
 30
0.0
 11
-452.7739
 21
198.7739
 31
0.0
  0
LINE
  8
0
 10
-452.7739
 20
198.7739
 30
0.0
 11
-452.7739
 21
309.2261
 31
0.0
  0
LINE
  8
0
 10
-452.7739
 20
309.2261
 30
0.0
 11
-452.7739
 21
198.7739
 31
0.0
  0
LINE
  8
0
 10
-452.7739
 20
198.7739
 30
0.0
 11
-452.7739
 21
-198.7739
 31
0.0
  0
LINE
  8
0
 10
-452.7739
 20
-198.7739
 30
0.0
 11
-452.7739
 21
198.7739
 31
0.0
  0
LINE
  8
0
 10
-452.7739
 20
198.7739
 30
0.0
 11
-55.22609
 21
198.7739
 31
0.0
  0
LINE
  8
0
 10
-55.22609
 20
198.7739
 30
0.0
 11
55.22604
 21
198.7739
 31
0.0
  0
LINE
  8
0
 10
55.22604
 20
198.7739
 30
0.0
 11
452.7739
 21
-198.7739
 31
0.0
  0
LINE
  8
0
 10
452.7739
 20
-198.7739
 30
0.0
 11
507.9999
 21
-254
 31
0.0
  0
LINE
  8
0
 10
507.9999
 20
-254
 30
0.0
 11
452.7739
 21
-309.2261
 31
0.0
  0
LINE
  8
0
 10
452.7739
 20
-309.2261
 30
0.0
 11
452.7739
 21
-198.7739
 31
0.0
  0
LINE
  8
0
 10
452.7739
 20
-198.7739
 30
0.0
 11
452.7739
 21
198.7739
 31
0.0
  0
LINE
  8
0
 10
452.7739
 20
198.7739
 30
0.0
 11
55.22604
 21
198.7739
 31
0.0
  0
LINE
  8
0
 10
55.22604
 20
198.7739
 30
0.0
 11
-2.537642E-05
 21
254
 31
0.0
  0
LINE
  8
0
 10
5.14116E-06
 20
254
 30
0.0
 11
-55.22606
 21
198.7739
 31
0.0
  0
LINE
  8
0
 10
-55.22606
 20
198.7739
 30
0.0
 11
-452.7739
 21
-198.7739
 31
0.0
  0
LINE
  8
0
 10
-452.7739
 20
-198.7739
 30
0.0
 11
-508
 21
-254
 31
0.0
  0
LINE
  8
0
 10
-508
 20
-254
 30
0.0
 11
-452.7739
 21
-309.2261
 31
0.0
  0
LINE
  8
0
 10
-452.7739
 20
-309.2261
 30
0.0
 11
-452.7739
 21
-198.7739
 31
0.0
  0
LINE
  8
0
 10
-452.7739
 20
-198.7739
 30
0.0
 11
-452.7739
 21
-309.2261
 31
0.0
  0
LINE
  8
0
 10
-452.774
 20
-309.2261
 30
0.0
 11
-452.774
 21
-706.7739
 31
0.0
  0
LINE
  8
0
 10
-452.774
 20
-706.7739
 30
0.0
 11
-452.774
 21
-309.2261
 31
0.0
  0
LINE
  8
0
 10
-452.7739
 20
-309.2261
 30
0.0
 11
-55.22606
 21
-706.7739
 31
0.0
  0
LINE
  8
0
 10
-55.2261
 20
-706.7739
 30
0.0
 11
55.22606
 21
-706.7739
 31
0.0
  0
LINE
  8
0
 10
55.22606
 20
-706.7739
 30
0.0
 11
452.7739
 21
-706.7739
 31
0.0
  0
LINE
  8
0
 10
452.7739
 20
-706.7739
 30
0.0
 11
452.7739
 21
-309.2261
 31
0.0
  0
LINE
  8
0
 10
452.7739
 20
-309.2261
 30
0.0
 11
55.22604
 21
-706.7739
 31
0.0
  0
LINE
  8
0
 10
55.22604
 20
-706.7739
 30
0.0
 11
-2.537642E-05
 21
-761.9998
 31
0.0
  0
LINE
  8
0
 10
5.14116E-06
 20
-761.9998
 30
0.0
 11
-55.22606
 21
-706.7739
 31
0.0
  0
LINE
  8
0
 10
-55.2261
 20
-706.7739
 30
0.0
 11
-452.774
 21
-706.7739
 31
0.0
  0
LINE
  8
0
 10
-452.774
 20
-706.7739
 30
0.0
 11
-563.2262
 21
-706.7739
 31
0.0
  0
CIRCLE
  8
0
 10
1000
 20
7000
 30
0.0
 40
100
  0
CIRCLE
  8
0
 10
3000
 20
7000
 30
0.0
 40
100
  0
CIRCLE
  8
0
 10
5000
 20
7000
 30
0.0
 40
100
  0
CIRCLE
  8
0
 10
100
 20
100
 30
0.0
 40
127
  0
CIRCLE
  8
0
 10
200
 20
200
 30
0.0
 40
200
  0
CIRCLE
  8
0
 10
300
 20
300
 30
0.0
 40
200
  0
CIRCLE
  8
0
 10
350
 20
350
 30
0.0
 40
200
  0
CIRCLE
  8
0
 10
360
 20
360
 30
0.0
 40
200
  0
CIRCLE
  8
0
 10
370
 20
370
 30
0.0
 40
200
  0
ENDSEC
  0
EOF
