  0
SECTION
  2
ENTITIES
  0
LINE
  8
0
 10
0
 20
713.0649
 30
0.0
 11
0
 21
253.3249
 31
0.0
  0
LINE
  8
0
 10
0
 20
253.3249
 30
0.0
 11
79.86543
 21
253.3249
 31
0.0
  0
LINE
  8
0
 10
79.86543
 20
253.3249
 30
0.0
 11
79.86543
 21
63.38759
 31
0.0
  0
LINE
  8
0
 10
79.86543
 20
63.38759
 30
0.0
 11
426.7843
 21
63.38759
 31
0.0
  0
LINE
  8
0
 10
426.7843
 20
63.38759
 30
0.0
 11
426.7843
 21
253.3249
 31
0.0
  0
LINE
  8
0
 10
426.7843
 20
253.3249
 30
0.0
 11
506.6498
 21
253.3249
 31
0.0
  0
LINE
  8
0
 10
506.6498
 20
253.3249
 30
0.0
 11
506.6498
 21
713.0649
 31
0.0
  0
LINE
  8
0
 10
506.6498
 20
713.0649
 30
0.0
 11
506.6498
 21
253.3249
 31
0.0
  0
LINE
  8
0
 10
506.6498
 20
253.3249
 30
0.0
 11
586.5152
 21
253.3249
 31
0.0
  0
LINE
  8
0
 10
586.5152
 20
253.3249
 30
0.0
 11
586.5152
 21
443.2622
 31
0.0
  0
LINE
  8
0
 10
586.5152
 20
443.2622
 30
0.0
 11
933.4341
 21
443.2622
 31
0.0
  0
LINE
  8
0
 10
933.4341
 20
443.2622
 30
0.0
 11
933.4341
 21
253.3249
 31
0.0
  0
LINE
  8
0
 10
933.4341
 20
253.3249
 30
0.0
 11
1013.299
 21
253.3249
 31
0.0
  0
LINE
  8
0
 10
1013.299
 20
253.3249
 30
0.0
 11
1013.299
 21
-206.4151
 31
0.0
  0
LINE
  8
0
 10
1013.299
 20
-206.4151
 30
0.0
 11
933.4341
 21
-206.4151
 31
0.0
  0
LINE
  8
0
 10
933.4341
 20
-206.4151
 30
0.0
 11
933.4341
 21
-396.3524
 31
0.0
  0
LINE
  8
0
 10
933.4341
 20
-396.3524
 30
0.0
 11
586.5152
 21
-396.3524
 31
0.0
  0
LINE
  8
0
 10
586.5152
 20
-396.3524
 30
0.0
 11
586.5152
 21
-206.4151
 31
0.0
  0
LINE
  8
0
 10
586.5152
 20
-206.4151
 30
0.0
 11
506.6498
 21
-206.4151
 31
0.0
  0
LINE
  8
0
 10
506.6498
 20
-206.4151
 30
0.0
 11
506.6498
 21
253.3249
 31
0.0
  0
LINE
  8
0
 10
506.6498
 20
253.3249
 30
0.0
 11
506.6498
 21
-206.4151
 31
0.0
  0
LINE
  8
0
 10
506.6498
 20
-206.4151
 30
0.0
 11
426.7843
 21
-206.4151
 31
0.0
  0
LINE
  8
0
 10
426.7843
 20
-206.4151
 30
0.0
 11
426.7843
 21
-16.47783
 31
0.0
  0
LINE
  8
0
 10
426.7843
 20
-16.47783
 30
0.0
 11
79.86543
 21
-16.47783
 31
0.0
  0
LINE
  8
0
 10
79.86543
 20
-16.47783
 30
0.0
 11
79.86543
 21
-206.4151
 31
0.0
  0
LINE
  8
0
 10
79.86543
 20
-206.4151
 30
0.0
 11
0
 21
-206.4151
 31
0.0
  0
CIRCLE
  8
0
 10
1000
 20
7000
 30
0.0
 40
100
  0
CIRCLE
  8
0
 10
3000
 20
7000
 30
0.0
 40
100
  0
CIRCLE
  8
0
 10
100
 20
100
 30
0.0
 40
125
  0
CIRCLE
  8
0
 10
200
 20
200
 30
0.0
 40
200
  0
CIRCLE
  8
0
 10
300
 20
300
 30
0.0
 40
200
  0
CIRCLE
  8
0
 10
350
 20
350
 30
0.0
 40
200
  0
CIRCLE
  8
0
 10
360
 20
360
 30
0.0
 40
200
  0
CIRCLE
  8
0
 10
370
 20
370
 30
0.0
 40
200
  0
ENDSEC
  0
EOF
