  0
SECTION
  2
ENTITIES
  0
LINE
  8
0
 10
254
 20
0
 30
0.0
 11
353.9419
 21
0
 31
0.0
  0
LINE
  8
0
 10
353.9419
 20
0
 30
0.0
 11
353.9419
 21
-200.2
 31
0.0
  0
LINE
  8
0
 10
353.9419
 20
-200.2
 30
0.0
 11
635
 21
-508
 31
0.0
  0
LINE
  8
0
 10
635
 20
-508
 30
0.0
 11
734.9419
 21
-508
 31
0.0
  0
LINE
  8
0
 10
734.9419
 20
-508
 30
0.0
 11
734.9419
 21
-708.2001
 31
0.0
  0
LINE
  8
0
 10
734.9419
 20
-708.2001
 30
0.0
 11
1016
 21
-1016
 31
0.0
  0
LINE
  8
0
 10
1016
 20
-1016
 30
0.0
 11
1016
 21
-1216.2
 31
0.0
  0
LINE
  8
0
 10
1016
 20
-1216.2
 30
0.0
 11
1115.942
 21
-1216.2
 31
0.0
  0
LINE
  8
0
 10
1115.942
 20
-1216.2
 30
0.0
 11
1016
 21
-1216.2
 31
0.0
  0
LINE
  8
0
 10
1016
 20
-1216.2
 30
0.0
 11
734.9419
 21
-1524
 31
0.0
  0
LINE
  8
0
 10
734.9419
 20
-1524
 30
0.0
 11
734.9419
 21
-1724.2
 31
0.0
  0
LINE
  8
0
 10
734.9419
 20
-1724.2
 30
0.0
 11
635
 21
-1724.2
 31
0.0
  0
LINE
  8
0
 10
635
 20
-1724.2
 30
0.0
 11
635
 21
-1524
 31
0.0
  0
LINE
  8
0
 10
635
 20
-1524
 30
0.0
 11
635
 21
-1724.2
 31
0.0
  0
LINE
  8
0
 10
635
 20
-1724.2
 30
0.0
 11
353.9419
 21
-2032
 31
0.0
  0
LINE
  8
0
 10
353.9419
 20
-2032
 30
0.0
 11
254
 21
-2032
 31
0.0
  0
CIRCLE
  8
0
 10
1000
 20
6000
 30
0.0
 40
100
  0
CIRCLE
  8
0
 10
1000
 20
8000
 30
0.0
 40
100
  0
CIRCLE
  8
0
 10
2500
 20
6000
 30
0.0
 40
100
  0
CIRCLE
  8
0
 10
2500
 20
8000
 30
0.0
 40
100
  0
CIRCLE
  8
0
 10
4000
 20
6000
 30
0.0
 40
100
  0
CIRCLE
  8
0
 10
4000
 20
8000
 30
0.0
 40
100
  0
CIRCLE
  8
0
 10
100
 20
100
 30
0.0
 40
125
  0
CIRCLE
  8
0
 10
200
 20
200
 30
0.0
 40
200
  0
CIRCLE
  8
0
 10
300
 20
300
 30
0.0
 40
200
  0
CIRCLE
  8
0
 10
350
 20
350
 30
0.0
 40
200
  0
CIRCLE
  8
0
 10
360
 20
360
 30
0.0
 40
200
  0
CIRCLE
  8
0
 10
370
 20
370
 30
0.0
 40
200
  0
ENDSEC
  0
EOF
