  0
SECTION
  2
ENTITIES
  0
LINE
  8
0
 10
254
 20
0
 30
0.0
 11
254
 21
-200.2
 31
0.0
  0
LINE
  8
0
 10
254
 20
-200.2
 30
0.0
 11
-27.05807
 21
-508.0001
 31
0.0
  0
LINE
  8
0
 10
-27.05807
 20
-508.0001
 30
0.0
 11
254
 21
-200.2
 31
0.0
  0
LINE
  8
0
 10
254
 20
-200.2
 30
0.0
 11
353.9419
 21
-200.2
 31
0.0
  0
LINE
  8
0
 10
353.9419
 20
-200.2
 30
0.0
 11
353.9419
 21
0
 31
0.0
  0
LINE
  8
0
 10
353.9419
 20
0
 30
0.0
 11
353.9419
 21
-200.2
 31
0.0
  0
LINE
  8
0
 10
353.9419
 20
-200.2
 30
0.0
 11
634.9999
 21
-507.9999
 31
0.0
  0
LINE
  8
0
 10
634.9999
 20
-507.9999
 30
0.0
 11
634.9999
 21
-708.2
 31
0.0
  0
LINE
  8
0
 10
634.9999
 20
-708.2
 30
0.0
 11
634.9999
 21
-507.9999
 31
0.0
  0
LINE
  8
0
 10
634.9999
 20
-507.9999
 30
0.0
 11
734.9418
 21
-507.9999
 31
0.0
  0
LINE
  8
0
 10
734.9418
 20
-507.9999
 30
0.0
 11
734.9418
 21
-708.2
 31
0.0
  0
LINE
  8
0
 10
734.9418
 20
-708.2
 30
0.0
 11
634.9999
 21
-708.2
 31
0.0
  0
LINE
  8
0
 10
634.9999
 20
-708.2
 30
0.0
 11
353.9419
 21
-1016
 31
0.0
  0
LINE
  8
0
 10
353.9419
 20
-1016
 30
0.0
 11
254
 21
-1016
 31
0.0
  0
LINE
  8
0
 10
254
 20
-1016
 30
0.0
 11
-27.05807
 21
-708.2
 31
0.0
  0
LINE
  8
0
 10
-27.05807
 20
-708.2
 30
0.0
 11
254
 21
-1016
 31
0.0
  0
CIRCLE
  8
0
 10
1000
 20
7000
 30
0.0
 40
100
  0
CIRCLE
  8
0
 10
2500
 20
7000
 30
0.0
 40
100
  0
CIRCLE
  8
0
 10
4000
 20
7000
 30
0.0
 40
100
  0
CIRCLE
  8
0
 10
100
 20
100
 30
0.0
 40
128
  0
CIRCLE
  8
0
 10
200
 20
200
 30
0.0
 40
200
  0
CIRCLE
  8
0
 10
300
 20
300
 30
0.0
 40
200
  0
CIRCLE
  8
0
 10
350
 20
350
 30
0.0
 40
200
  0
CIRCLE
  8
0
 10
360
 20
360
 30
0.0
 40
200
  0
CIRCLE
  8
0
 10
370
 20
370
 30
0.0
 40
200
  0
ENDSEC
  0
EOF
