  0
SECTION
  2
ENTITIES
  0
LINE
  8
0
 10
63.48666
 20
190.5417
 30
0.0
 11
381.0475
 21
-126.9616
 31
0.0
  0
ARC
  8
0
 10
498.8875
 20
-28.11682
 30
0.0
 40
153.8065
 50
219.9901
 51
270.0417
  0
ARC
  8
0
 10
494.7071
 20
-110.3911
 30
0.0
 40
71.66097
 50
273.4341
 51
346.6299
  0
ARC
  8
0
 10
494.707
 20
-143.5322
 30
0.0
 40
71.66097
 50
13.36964
 51
86.56551
  0
ARC
  8
0
 10
498.8869
 20
-225.8065
 30
0.0
 40
153.8065
 50
89.95788
 51
140.0097
  0
ARC
  8
0
 10
263.2089
 20
-28.11506
 30
0.0
 40
153.8065
 50
269.9577
 51
320.0092
  0
ARC
  8
0
 10
267.3881
 20
-110.3894
 30
0.0
 40
71.66097
 50
193.3695
 51
266.5654
  0
ARC
  8
0
 10
267.3877
 20
-143.5305
 30
0.0
 40
71.66097
 50
93.43356
 51
166.6295
  0
ARC
  8
0
 10
263.2066
 20
-225.8047
 30
0.0
 40
153.8065
 50
39.98961
 51
90.04124
  0
ARC
  8
0
 10
259.2038
 20
-250.5191
 30
0.0
 40
173.5292
 50
5.162546
 51
45.39992
  0
ARC
  8
0
 10
360.5805
 20
-241.5711
 30
0.0
 40
71.75915
 50
286.6005
 51
5.330181
  0
ARC
  8
0
 10
401.5575
 20
-241.5636
 30
0.0
 40
71.75915
 50
174.691
 51
253.4208
  0
ARC
  8
0
 10
502.9373
 20
-250.4743
 30
0.0
 40
173.5292
 50
134.6212
 51
174.8587
  0
ARC
  8
0
 10
259.2084
 20
-3.400936
 30
0.0
 40
173.5292
 50
314.5985
 51
354.8358
  0
ARC
  8
0
 10
360.5847
 20
-12.352
 30
0.0
 40
71.75915
 50
354.6682
 51
73.39795
  0
ARC
  8
0
 10
401.5619
 20
-12.3608
 30
0.0
 40
71.75915
 50
106.5777
 51
185.3074
  0
ARC
  8
0
 10
502.9419
 20
-3.453218
 30
0.0
 40
173.5292
 50
185.1397
 51
225.3771
  0
LINE
  8
0
 10
381.0479
 20
-126.9614
 30
0.0
 11
698.6148
 21
203.9221
 31
0.0
  0
LINE
  8
0
 10
698.6148
 20
203.9221
 30
0.0
 11
1016.175
 21
-126.9675
 31
0.0
  0
LINE
  8
0
 10
1016.175
 20
-126.9675
 30
0.0
 11
1333.741
 21
190.53
 31
0.0
  0
LINE
  8
0
 10
1333.741
 20
190.53
 30
0.0
 11
1016.175
 21
-126.9675
 31
0.0
  0
LINE
  8
0
 10
1016.175
 20
-126.9675
 30
0.0
 11
1333.736
 21
-444.4704
 31
0.0
  0
LINE
  8
0
 10
1333.735
 20
-444.4704
 30
0.0
 11
1016.175
 21
-113.5811
 31
0.0
  0
LINE
  8
0
 10
1016.175
 20
-113.5811
 30
0.0
 11
698.6087
 21
-444.4646
 31
0.0
  0
LINE
  8
0
 10
698.6087
 20
-444.4646
 30
0.0
 11
381.0475
 21
-126.9616
 31
0.0
  0
LINE
  8
0
 10
381.0475
 20
-126.9616
 30
0.0
 11
63.48081
 21
-444.4588
 31
0.0
  0
LINE
  8
0
 10
63.48081
 20
-444.4588
 30
0.0
 11
381.0417
 21
-761.9621
 31
0.0
  0
LINE
  8
0
 10
381.0417
 20
-761.9621
 30
0.0
 11
698.6088
 21
-431.0786
 31
0.0
  0
LINE
  8
0
 10
698.6088
 20
-431.0786
 30
0.0
 11
1016.169
 21
-761.9681
 31
0.0
  0
ARC
  8
0
 10
1134.01
 20
-663.1234
 30
0.0
 40
153.8065
 50
219.9901
 51
270.0417
  0
ARC
  8
0
 10
1129.829
 20
-745.3976
 30
0.0
 40
71.66097
 50
273.4341
 51
346.6299
  0
ARC
  8
0
 10
1129.829
 20
-778.5388
 30
0.0
 40
71.66097
 50
13.36964
 51
86.56551
  0
ARC
  8
0
 10
1134.009
 20
-860.813
 30
0.0
 40
153.8065
 50
89.95788
 51
140.0097
  0
ARC
  8
0
 10
898.3312
 20
-663.1216
 30
0.0
 40
153.8065
 50
269.9577
 51
320.0092
  0
ARC
  8
0
 10
902.5104
 20
-745.3959
 30
0.0
 40
71.66097
 50
193.3695
 51
266.5654
  0
ARC
  8
0
 10
902.5099
 20
-778.537
 30
0.0
 40
71.66097
 50
93.43356
 51
166.6295
  0
ARC
  8
0
 10
898.3289
 20
-860.8113
 30
0.0
 40
153.8065
 50
39.98961
 51
90.04124
  0
ARC
  8
0
 10
894.3258
 20
-885.5256
 30
0.0
 40
173.5292
 50
5.162546
 51
45.39992
  0
ARC
  8
0
 10
995.7022
 20
-876.5778
 30
0.0
 40
71.75915
 50
286.6005
 51
5.330181
  0
ARC
  8
0
 10
1036.679
 20
-876.5704
 30
0.0
 40
71.75915
 50
174.691
 51
253.4208
  0
ARC
  8
0
 10
1138.058
 20
-885.481
 30
0.0
 40
173.5292
 50
134.6212
 51
174.8587
  0
ARC
  8
0
 10
894.3304
 20
-638.4075
 30
0.0
 40
173.5292
 50
314.5985
 51
354.8358
  0
ARC
  8
0
 10
995.7066
 20
-647.3586
 30
0.0
 40
71.75915
 50
354.6682
 51
73.39795
  0
ARC
  8
0
 10
1036.683
 20
-647.3674
 30
0.0
 40
71.75915
 50
106.5777
 51
185.3074
  0
ARC
  8
0
 10
1138.063
 20
-638.4598
 30
0.0
 40
173.5292
 50
185.1397
 51
225.3771
  0
LINE
  8
0
 10
1016.169
 20
-761.9681
 30
0.0
 11
1333.735
 21
-431.0845
 31
0.0
  0
LINE
  8
0
 10
1333.735
 20
-431.0845
 30
0.0
 11
1016.169
 21
-761.9681
 31
0.0
  0
LINE
  8
0
 10
1016.169
 20
-761.9681
 30
0.0
 11
1333.73
 21
-1079.47
 31
0.0
  0
LINE
  8
0
 10
1333.73
 20
-1079.47
 30
0.0
 11
1016.17
 21
-748.5811
 31
0.0
  0
LINE
  8
0
 10
1016.17
 20
-748.5811
 30
0.0
 11
698.6029
 21
-1079.464
 31
0.0
  0
LINE
  8
0
 10
698.6029
 20
-1079.464
 30
0.0
 11
381.0428
 21
-748.5751
 31
0.0
  0
LINE
  8
0
 10
381.0428
 20
-748.5751
 30
0.0
 11
63.47491
 21
-1079.458
 31
0.0
  0
CIRCLE
  8
0
 10
1000
 20
7000
 30
0.0
 40
100
  0
CIRCLE
  8
0
 10
3500
 20
7000
 30
0.0
 40
100
  0
CIRCLE
  8
0
 10
100
 20
100
 30
0.0
 40
128
  0
CIRCLE
  8
0
 10
200
 20
200
 30
0.0
 40
200
  0
CIRCLE
  8
0
 10
300
 20
300
 30
0.0
 40
200
  0
CIRCLE
  8
0
 10
350
 20
350
 30
0.0
 40
200
  0
CIRCLE
  8
0
 10
360
 20
360
 30
0.0
 40
200
  0
CIRCLE
  8
0
 10
370
 20
370
 30
0.0
 40
200
  0
ENDSEC
  0
EOF
