  0
SECTION
  2
ENTITIES
  0
LINE
  8
0
 10
-507.7753
 20
0
 30
0.0
 11
-1269.438
 21
-720.09
 31
0.0
  0
LINE
  8
0
 10
-1269.438
 20
-720.09
 30
0.0
 11
-1139.587
 21
-720.09
 31
0.0
  0
LINE
  8
0
 10
-1139.587
 20
-720.09
 30
0.0
 11
-377.9236
 21
0
 31
0.0
  0
LINE
  8
0
 10
-377.9236
 20
0
 30
0.0
 11
-1139.587
 21
-720.09
 31
0.0
  0
LINE
  8
0
 10
-1139.587
 20
-720.09
 30
0.0
 11
-507.7753
 21
-720.09
 31
0.0
  0
LINE
  8
0
 10
-507.7753
 20
-720.09
 30
0.0
 11
124.036
 21
-720.09
 31
0.0
  0
LINE
  8
0
 10
124.036
 20
-720.09
 30
0.0
 11
253.8876
 21
-720.09
 31
0.0
  0
LINE
  8
0
 10
253.8876
 20
-720.09
 30
0.0
 11
-507.7753
 21
-1440.18
 31
0.0
  0
LINE
  8
0
 10
-507.7753
 20
-1440.18
 30
0.0
 11
-1269.438
 21
-1440.18
 31
0.0
  0
LINE
  8
0
 10
-1269.438
 20
-1440.18
 30
0.0
 11
-507.7753
 21
-1440.18
 31
0.0
  0
LINE
  8
0
 10
-507.7753
 20
-1440.18
 30
0.0
 11
-377.9236
 21
-1440.18
 31
0.0
  0
LINE
  8
0
 10
-377.9236
 20
-1440.18
 30
0.0
 11
383.7393
 21
-720.09
 31
0.0
  0
LINE
  8
0
 10
383.7393
 20
-720.09
 30
0.0
 11
-377.9236
 21
-1440.18
 31
0.0
  0
LINE
  8
0
 10
-377.9236
 20
-1440.18
 30
0.0
 11
383.7393
 21
-1440.18
 31
0.0
  0
LINE
  8
0
 10
383.7393
 20
-1440.18
 30
0.0
 11
-377.9236
 21
-1440.18
 31
0.0
  0
LINE
  8
0
 10
-377.9236
 20
-1440.18
 30
0.0
 11
-507.7753
 21
-1440.18
 31
0.0
  0
CIRCLE
  8
0
 10
1000
 20
7000
 30
0.0
 40
100
  0
CIRCLE
  8
0
 10
4000
 20
7000
 30
0.0
 40
100
  0
CIRCLE
  8
0
 10
7000
 20
7000
 30
0.0
 40
100
  0
CIRCLE
  8
0
 10
100
 20
100
 30
0.0
 40
128
  0
CIRCLE
  8
0
 10
200
 20
200
 30
0.0
 40
200
  0
CIRCLE
  8
0
 10
300
 20
300
 30
0.0
 40
200
  0
CIRCLE
  8
0
 10
350
 20
350
 30
0.0
 40
200
  0
CIRCLE
  8
0
 10
360
 20
360
 30
0.0
 40
200
  0
CIRCLE
  8
0
 10
370
 20
370
 30
0.0
 40
200
  0
ENDSEC
  0
EOF
