  0
SECTION
  2
ENTITIES
  0
LINE
  8
0
 10
888.858
 20
571.5
 30
0.0
 11
571.4396
 21
95.45432
 31
0.0
  0
LINE
  8
0
 10
571.4396
 20
95.45432
 30
0.0
 11
507.9189
 21
0
 31
0.0
  0
LINE
  8
0
 10
507.9189
 20
0
 30
0.0
 11
571.4396
 21
-95.45432
 31
0.0
  0
LINE
  8
0
 10
571.4396
 20
-95.45432
 30
0.0
 11
634.8986
 21
0
 31
0.0
  0
LINE
  8
0
 10
634.8986
 20
0
 30
0.0
 11
571.4396
 21
95.45432
 31
0.0
  0
LINE
  8
0
 10
571.4396
 20
95.45432
 30
0.0
 11
253.9594
 21
571.5
 31
0.0
  0
LINE
  8
0
 10
253.9594
 20
571.5
 30
0.0
 11
-126.9797
 21
0
 31
0.0
  0
LINE
  8
0
 10
-126.9797
 20
0
 30
0.0
 11
253.9594
 21
-571.5
 31
0.0
  0
LINE
  8
0
 10
253.9594
 20
-571.5
 30
0.0
 11
571.4396
 21
-95.45432
 31
0.0
  0
LINE
  8
0
 10
571.4396
 20
-95.45432
 30
0.0
 11
888.858
 21
-571.5
 31
0.0
  0
CIRCLE
  8
0
 10
1000
 20
7000
 30
0.0
 40
100
  0
CIRCLE
  8
0
 10
2500
 20
7000
 30
0.0
 40
100
  0
CIRCLE
  8
0
 10
4000
 20
7000
 30
0.0
 40
100
  0
CIRCLE
  8
0
 10
100
 20
100
 30
0.0
 40
125
  0
CIRCLE
  8
0
 10
200
 20
200
 30
0.0
 40
200
  0
CIRCLE
  8
0
 10
300
 20
300
 30
0.0
 40
200
  0
CIRCLE
  8
0
 10
350
 20
350
 30
0.0
 40
200
  0
CIRCLE
  8
0
 10
360
 20
360
 30
0.0
 40
200
  0
CIRCLE
  8
0
 10
370
 20
370
 30
0.0
 40
200
  0
ENDSEC
  0
EOF
