  0
SECTION
  2
ENTITIES
  0
LINE
  8
0
 10
0
 20
0
 30
0.0
 11
0
 21
-589.28
 31
0.0
  0
LINE
  8
0
 10
0
 20
-589.28
 30
0.0
 11
633.8234
 21
-253.5294
 31
0.0
  0
LINE
  8
0
 10
633.8234
 20
-253.5294
 30
0.0
 11
633.8234
 21
-842.8093
 31
0.0
  0
LINE
  8
0
 10
633.8234
 20
-842.8093
 30
0.0
 11
633.8234
 21
-253.5294
 31
0.0
  0
LINE
  8
0
 10
633.8234
 20
-253.5294
 30
0.0
 11
1267.647
 21
-589.28
 31
0.0
  0
LINE
  8
0
 10
1267.647
 20
-589.28
 30
0.0
 11
1267.647
 21
-1178.56
 31
0.0
  0
LINE
  8
0
 10
1267.647
 20
-1178.56
 30
0.0
 11
633.8234
 21
-842.8093
 31
0.0
  0
LINE
  8
0
 10
633.8234
 20
-842.8093
 30
0.0
 11
633.8234
 21
-1432.089
 31
0.0
  0
LINE
  8
0
 10
633.8234
 20
-1432.089
 30
0.0
 11
633.8234
 21
-842.8093
 31
0.0
  0
LINE
  8
0
 10
633.8234
 20
-842.8093
 30
0.0
 11
0
 21
-1178.56
 31
0.0
  0
CIRCLE
  8
0
 10
1000
 20
7000
 30
0.0
 40
100
  0
CIRCLE
  8
0
 10
3500
 20
7000
 30
0.0
 40
100
  0
CIRCLE
  8
0
 10
6000
 20
7000
 30
0.0
 40
100
  0
CIRCLE
  8
0
 10
100
 20
100
 30
0.0
 40
128
  0
CIRCLE
  8
0
 10
200
 20
200
 30
0.0
 40
200
  0
CIRCLE
  8
0
 10
300
 20
300
 30
0.0
 40
200
  0
CIRCLE
  8
0
 10
350
 20
350
 30
0.0
 40
200
  0
CIRCLE
  8
0
 10
360
 20
360
 30
0.0
 40
200
  0
CIRCLE
  8
0
 10
370
 20
370
 30
0.0
 40
200
  0
ENDSEC
  0
EOF
