  0
SECTION
  2
ENTITIES
  0
LINE
  8
0
 10
0
 20
1524
 30
0.0
 11
0
 21
762
 31
0.0
  0
LINE
  8
0
 10
0
 20
762
 30
0.0
 11
127
 21
762
 31
0.0
  0
LINE
  8
0
 10
127
 20
762
 30
0.0
 11
127
 21
1.144409E-04
 31
0.0
  0
LINE
  8
0
 10
127
 20
1.144409E-04
 30
0.0
 11
254
 21
1.144409E-04
 31
0.0
  0
LINE
  8
0
 10
254
 20
1.144409E-04
 30
0.0
 11
254
 21
762
 31
0.0
  0
LINE
  8
0
 10
254
 20
762
 30
0.0
 11
381
 21
762
 31
0.0
  0
LINE
  8
0
 10
381
 20
762
 30
0.0
 11
381
 21
1.144409E-04
 31
0.0
  0
LINE
  8
0
 10
381
 20
1.144409E-04
 30
0.0
 11
508
 21
1.144409E-04
 31
0.0
  0
LINE
  8
0
 10
508
 20
1.144409E-04
 30
0.0
 11
508
 21
762
 31
0.0
  0
LINE
  8
0
 10
508
 20
762
 30
0.0
 11
635
 21
762
 31
0.0
  0
LINE
  8
0
 10
635
 20
762
 30
0.0
 11
635
 21
1.144409E-04
 31
0.0
  0
LINE
  8
0
 10
635
 20
1.144409E-04
 30
0.0
 11
762
 21
1.144409E-04
 31
0.0
  0
LINE
  8
0
 10
762
 20
1.144409E-04
 30
0.0
 11
762
 21
-761.9998
 31
0.0
  0
LINE
  8
0
 10
762
 20
-761.9998
 30
0.0
 11
762
 21
-1524
 31
0.0
  0
LINE
  8
0
 10
762
 20
-1524
 30
0.0
 11
635
 21
-1524
 31
0.0
  0
LINE
  8
0
 10
635
 20
-1524
 30
0.0
 11
635
 21
-761.9998
 31
0.0
  0
LINE
  8
0
 10
635
 20
-761.9998
 30
0.0
 11
508
 21
-761.9998
 31
0.0
  0
LINE
  8
0
 10
508
 20
-761.9998
 30
0.0
 11
508
 21
-1524
 31
0.0
  0
LINE
  8
0
 10
508
 20
-1524
 30
0.0
 11
381
 21
-1524
 31
0.0
  0
LINE
  8
0
 10
381
 20
-1524
 30
0.0
 11
381
 21
-761.9998
 31
0.0
  0
LINE
  8
0
 10
381
 20
-761.9998
 30
0.0
 11
254
 21
-761.9998
 31
0.0
  0
LINE
  8
0
 10
254
 20
-761.9998
 30
0.0
 11
254
 21
-1524
 31
0.0
  0
LINE
  8
0
 10
254
 20
-1524
 30
0.0
 11
127
 21
-1524
 31
0.0
  0
LINE
  8
0
 10
127
 20
-1524
 30
0.0
 11
127
 21
-761.9998
 31
0.0
  0
LINE
  8
0
 10
127
 20
-761.9998
 30
0.0
 11
0
 21
-761.9998
 31
0.0
  0
LINE
  8
0
 10
0
 20
-761.9998
 30
0.0
 11
0
 21
-1524
 31
0.0
  0
CIRCLE
  8
0
 10
1000
 20
7000
 30
0.0
 40
100
  0
CIRCLE
  8
0
 10
2500
 20
8000
 30
0.0
 40
100
  0
CIRCLE
  8
0
 10
4000
 20
7000
 30
0.0
 40
100
  0
CIRCLE
  8
0
 10
100
 20
100
 30
0.0
 40
125
  0
CIRCLE
  8
0
 10
200
 20
200
 30
0.0
 40
200
  0
CIRCLE
  8
0
 10
300
 20
300
 30
0.0
 40
200
  0
CIRCLE
  8
0
 10
350
 20
350
 30
0.0
 40
200
  0
CIRCLE
  8
0
 10
360
 20
360
 30
0.0
 40
200
  0
CIRCLE
  8
0
 10
370
 20
370
 30
0.0
 40
200
  0
ENDSEC
  0
EOF
