  0
SECTION
  2
ENTITIES
  0
LINE
  8
0
 10
-6.906962E-02
 20
253.9218
 30
0.0
 11
-1.141054E-08
 21
201.7639
 31
0.0
  0
LINE
  8
0
 10
-1.141054E-08
 20
201.7639
 30
0.0
 11
-1.141054E-08
 21
146.6957
 31
0.0
  0
LINE
  8
0
 10
-1.141054E-08
 20
146.6957
 30
0.0
 11
-1.141054E-08
 21
201.7639
 31
0.0
  0
LINE
  8
0
 10
-1.141054E-08
 20
201.7639
 30
0.0
 11
52.15784
 21
253.9218
 31
0.0
  0
LINE
  8
0
 10
52.15784
 20
253.9218
 30
0.0
 11
-6.906962E-02
 21
253.9218
 31
0.0
  0
LINE
  8
0
 10
-6.906962E-02
 20
253.9218
 30
0.0
 11
52.15784
 21
253.9218
 31
0.0
  0
LINE
  8
0
 10
52.08879
 20
253.8348
 30
0.0
 11
107.157
 21
253.8159
 31
0.0
  0
LINE
  8
0
 10
102.5988
 20
253.9217
 30
0.0
 11
153.0398
 21
253.9218
 31
0.0
  0
LINE
  8
0
 10
153.0398
 20
253.9218
 30
0.0
 11
102.5988
 21
253.9217
 31
0.0
  0
LINE
  8
0
 10
107.157
 20
253.8159
 30
0.0
 11
-1.141054E-08
 21
146.6957
 31
0.0
  0
LINE
  8
0
 10
-1.141054E-08
 20
146.6957
 30
0.0
 11
-1.141054E-08
 21
100.882
 31
0.0
  0
LINE
  8
0
 10
-1.141054E-08
 20
100.882
 30
0.0
 11
-1.141054E-08
 21
45.81379
 31
0.0
  0
LINE
  8
0
 10
-1.141054E-08
 20
45.81379
 30
0.0
 11
-1.141054E-08
 21
100.882
 31
0.0
  0
LINE
  8
0
 10
-1.141054E-08
 20
100.882
 30
0.0
 11
153.0398
 21
253.9218
 31
0.0
  0
LINE
  8
0
 10
152.9707
 20
253.8001
 30
0.0
 11
208.0389
 21
253.7811
 31
0.0
  0
LINE
  8
0
 10
208.0389
 20
253.7811
 30
0.0
 11
253.9218
 21
253.9218
 31
0.0
  0
LINE
  8
0
 10
253.9218
 20
253.9218
 30
0.0
 11
208.0389
 21
253.7811
 31
0.0
  0
LINE
  8
0
 10
208.0389
 20
253.7811
 30
0.0
 11
-1.141054E-08
 21
45.81379
 31
0.0
  0
LINE
  8
0
 10
-1.141054E-08
 20
45.81379
 30
0.0
 11
-1.141054E-08
 21
4.194874E-05
 31
0.0
  0
LINE
  8
0
 10
-1.141054E-08
 20
4.194874E-05
 30
0.0
 11
253.9218
 21
253.9218
 31
0.0
  0
LINE
  8
0
 10
253.9218
 20
253.9218
 30
0.0
 11
253.9218
 21
198.8535
 31
0.0
  0
LINE
  8
0
 10
253.9218
 20
198.8535
 30
0.0
 11
253.9218
 21
153.0399
 31
0.0
  0
LINE
  8
0
 10
253.9218
 20
153.0399
 30
0.0
 11
253.9218
 21
198.8535
 31
0.0
  0
LINE
  8
0
 10
253.9218
 20
198.8535
 30
0.0
 11
50.44097
 21
4.194874E-05
 31
0.0
  0
LINE
  8
0
 10
50.44097
 20
4.194874E-05
 30
0.0
 11
100.882
 21
4.194874E-05
 31
0.0
  0
LINE
  8
0
 10
100.882
 20
4.194874E-05
 30
0.0
 11
253.9218
 21
153.0398
 31
0.0
  0
LINE
  8
0
 10
253.9218
 20
153.0399
 30
0.0
 11
253.9218
 21
97.97167
 31
0.0
  0
LINE
  8
0
 10
253.9218
 20
97.97167
 30
0.0
 11
253.9218
 21
52.15804
 31
0.0
  0
LINE
  8
0
 10
253.9218
 20
52.15804
 30
0.0
 11
253.9218
 21
97.97167
 31
0.0
  0
LINE
  8
0
 10
253.9218
 20
97.97167
 30
0.0
 11
155.9502
 21
-.0188942
 31
0.0
  0
LINE
  8
0
 10
151.323
 20
4.194874E-05
 30
0.0
 11
201.764
 21
4.194874E-05
 31
0.0
  0
LINE
  8
0
 10
201.7639
 20
4.194874E-05
 30
0.0
 11
253.9218
 21
52.15789
 31
0.0
  0
LINE
  8
0
 10
253.9218
 20
52.15789
 30
0.0
 11
253.9218
 21
-.1564268
 31
0.0
  0
LINE
  8
0
 10
253.9218
 20
-.1564268
 30
0.0
 11
201.7639
 21
4.957579E-05
 31
0.0
  0
LINE
  8
0
 10
201.764
 20
4.194874E-05
 30
0.0
 11
151.323
 21
4.194874E-05
 31
0.0
  0
LINE
  8
0
 10
155.9502
 20
-.0188942
 30
0.0
 11
100.882
 21
4.194874E-05
 31
0.0
  0
LINE
  8
0
 10
100.882
 20
4.194874E-05
 30
0.0
 11
50.44097
 21
4.194874E-05
 31
0.0
  0
LINE
  8
0
 10
55.06824
 20
-.0188942
 30
0.0
 11
-1.141054E-08
 21
4.194874E-05
 31
0.0
  0
LINE
  8
0
 10
-1.141054E-08
 20
4.194874E-05
 30
0.0
 11
-45.88285
 21
-.1406288
 31
0.0
  0
LINE
  8
0
 10
-45.88285
 20
-.1406288
 30
0.0
 11
-100.9511
 21
-.1216621
 31
0.0
  0
LINE
  8
0
 10
-100.9511
 20
-.1216621
 30
0.0
 11
-146.7647
 21
-.1058998
 31
0.0
  0
LINE
  8
0
 10
-146.7647
 20
-.1058998
 30
0.0
 11
-201.833
 21
-8.696365E-02
 31
0.0
  0
LINE
  8
0
 10
-201.833
 20
-8.696365E-02
 30
0.0
 11
-253.9908
 21
4.194874E-05
 31
0.0
  0
LINE
  8
0
 10
-253.9908
 20
4.194874E-05
 30
0.0
 11
-253.9218
 21
-52.15784
 31
0.0
  0
LINE
  8
0
 10
-253.9218
 20
-52.15784
 30
0.0
 11
-253.9218
 21
-107.2261
 31
0.0
  0
LINE
  8
0
 10
-253.9218
 20
-107.2261
 30
0.0
 11
-253.9218
 21
-52.15784
 31
0.0
  0
LINE
  8
0
 10
-253.9218
 20
-52.15784
 30
0.0
 11
-201.7639
 21
4.194874E-05
 31
0.0
  0
LINE
  8
0
 10
-201.833
 20
-8.696365E-02
 30
0.0
 11
-146.7647
 21
-.1058998
 31
0.0
  0
LINE
  8
0
 10
-146.7647
 20
-.1058998
 30
0.0
 11
-253.9218
 21
-107.2261
 31
0.0
  0
LINE
  8
0
 10
-253.9218
 20
-107.2261
 30
0.0
 11
-253.9218
 21
-153.0397
 31
0.0
  0
LINE
  8
0
 10
-253.9218
 20
-153.0397
 30
0.0
 11
-253.9218
 21
-208.108
 31
0.0
  0
LINE
  8
0
 10
-253.9218
 20
-208.108
 30
0.0
 11
-253.9218
 21
-153.0397
 31
0.0
  0
LINE
  8
0
 10
-253.9218
 20
-153.0397
 30
0.0
 11
-100.882
 21
4.194874E-05
 31
0.0
  0
LINE
  8
0
 10
-100.9511
 20
-.1216621
 30
0.0
 11
-45.88285
 21
-.1406288
 31
0.0
  0
LINE
  8
0
 10
-45.88285
 20
-.1406288
 30
0.0
 11
-253.9218
 21
-208.108
 31
0.0
  0
LINE
  8
0
 10
-253.9218
 20
-208.108
 30
0.0
 11
-253.9218
 21
-253.9217
 31
0.0
  0
LINE
  8
0
 10
-253.9218
 20
-253.9217
 30
0.0
 11
-1.141054E-08
 21
4.194874E-05
 31
0.0
  0
LINE
  8
0
 10
-1.141054E-08
 20
4.194874E-05
 30
0.0
 11
-1.141054E-08
 21
-55.06821
 31
0.0
  0
LINE
  8
0
 10
-1.141054E-08
 20
-55.06821
 30
0.0
 11
-1.141054E-08
 21
-100.8819
 31
0.0
  0
LINE
  8
0
 10
-1.141054E-08
 20
-100.8819
 30
0.0
 11
-1.141054E-08
 21
-55.06821
 31
0.0
  0
LINE
  8
0
 10
-1.141054E-08
 20
-55.06821
 30
0.0
 11
-203.4808
 21
-253.9217
 31
0.0
  0
LINE
  8
0
 10
-203.4808
 20
-253.9217
 30
0.0
 11
-253.9218
 21
-253.9217
 31
0.0
  0
LINE
  8
0
 10
-253.9218
 20
-253.9217
 30
0.0
 11
-203.4808
 21
-253.9217
 31
0.0
  0
LINE
  8
0
 10
-203.4808
 20
-253.9217
 30
0.0
 11
-153.0398
 21
-253.9217
 31
0.0
  0
LINE
  8
0
 10
-153.0398
 20
-253.9217
 30
0.0
 11
-97.97153
 21
-253.9407
 31
0.0
  0
LINE
  8
0
 10
-97.97153
 20
-253.9407
 30
0.0
 11
-153.0398
 21
-253.9217
 31
0.0
  0
LINE
  8
0
 10
-153.0398
 20
-253.9217
 30
0.0
 11
-1.141054E-08
 21
-100.882
 31
0.0
  0
LINE
  8
0
 10
-1.141054E-08
 20
-100.8819
 30
0.0
 11
-1.141054E-08
 21
-155.9501
 31
0.0
  0
LINE
  8
0
 10
-1.141054E-08
 20
-155.9501
 30
0.0
 11
-97.97153
 21
-253.9407
 31
0.0
  0
LINE
  8
0
 10
-97.97153
 20
-253.9407
 30
0.0
 11
-52.15789
 21
-253.9217
 31
0.0
  0
LINE
  8
0
 10
-52.15789
 20
-253.9217
 30
0.0
 11
-1.141054E-08
 21
-254.0782
 31
0.0
  0
LINE
  8
0
 10
-1.141054E-08
 20
-254.0782
 30
0.0
 11
-52.15789
 21
-253.9217
 31
0.0
  0
LINE
  8
0
 10
-52.15789
 20
-253.9217
 30
0.0
 11
-1.141054E-08
 21
-201.7639
 31
0.0
  0
LINE
  8
0
 10
-1.141054E-08
 20
-201.7637
 30
0.0
 11
-1.141054E-08
 21
-155.9501
 31
0.0
  0
LINE
  8
0
 10
-1.141054E-08
 20
-155.9501
 30
0.0
 11
-1.141054E-08
 21
-201.7637
 31
0.0
  0
LINE
  8
0
 10
-1.141054E-08
 20
-201.7639
 30
0.0
 11
-1.141054E-08
 21
-254.0782
 31
0.0
  0
CIRCLE
  8
0
 10
1000
 20
7000
 30
0.0
 40
100
  0
CIRCLE
  8
0
 10
2000
 20
7000
 30
0.0
 40
100
  0
CIRCLE
  8
0
 10
3000
 20
7000
 30
0.0
 40
100
  0
CIRCLE
  8
0
 10
100
 20
100
 30
0.0
 40
127
  0
CIRCLE
  8
0
 10
200
 20
200
 30
0.0
 40
202
  0
CIRCLE
  8
0
 10
300
 20
300
 30
0.0
 40
200
  0
CIRCLE
  8
0
 10
350
 20
350
 30
0.0
 40
200
  0
CIRCLE
  8
0
 10
360
 20
360
 30
0.0
 40
200
  0
CIRCLE
  8
0
 10
370
 20
370
 30
0.0
 40
200
  0
ENDSEC
  0
EOF
