  0
SECTION
  2
ENTITIES
  0
LINE
  8
0
 10
2.997418E-06
 20
254
 30
0.0
 11
2.997418E-06
 21
1.144409E-05
 31
0.0
  0
LINE
  8
0
 10
2.997418E-06
 20
1.144409E-05
 30
0.0
 11
199.5818
 21
-254
 31
0.0
  0
LINE
  8
0
 10
199.5818
 20
-254
 30
0.0
 11
2.997418E-06
 21
-508
 31
0.0
  0
LINE
  8
0
 10
2.997418E-06
 20
-508
 30
0.0
 11
2.997418E-06
 21
-762
 31
0.0
  0
LINE
  8
0
 10
2.997418E-06
 20
-762
 30
0.0
 11
199.5818
 21
-1016
 31
0.0
  0
LINE
  8
0
 10
199.5818
 20
-1016
 30
0.0
 11
199.5818
 21
-1270
 31
0.0
  0
LINE
  8
0
 10
199.5818
 20
-1270
 30
0.0
 11
199.5818
 21
-1524
 31
0.0
  0
LINE
  8
0
 10
199.5818
 20
-1524
 30
0.0
 11
2.997418E-06
 21
-1778
 31
0.0
  0
CIRCLE
  8
0
 10
1000
 20
6000
 30
0.0
 40
100
  0
CIRCLE
  8
0
 10
1000
 20
8000
 30
0.0
 40
100
  0
CIRCLE
  8
0
 10
1500
 20
6000
 30
0.0
 40
100
  0
CIRCLE
  8
0
 10
1500
 20
8000
 30
0.0
 40
100
  0
CIRCLE
  8
0
 10
100
 20
100
 30
0.0
 40
125
  0
CIRCLE
  8
0
 10
200
 20
200
 30
0.0
 40
200
  0
CIRCLE
  8
0
 10
300
 20
300
 30
0.0
 40
200
  0
CIRCLE
  8
0
 10
350
 20
350
 30
0.0
 40
200
  0
CIRCLE
  8
0
 10
360
 20
360
 30
0.0
 40
200
  0
CIRCLE
  8
0
 10
370
 20
370
 30
0.0
 40
200
  0
ENDSEC
  0
EOF
