  0
SECTION
  2
ENTITIES
  0
LINE
  8
0
 10
762.6001
 20
762.6001
 30
0.0
 11
702.9619
 21
702.9619
 31
0.0
  0
LINE
  8
0
 10
702.9619
 20
702.9619
 30
0.0
 11
0
 21
0
 31
0.0
  0
LINE
  8
0
 10
0
 20
0
 30
0.0
 11
59.63823
 21
-59.63823
 31
0.0
  0
LINE
  8
0
 10
59.63823
 20
-59.63823
 30
0.0
 11
762.6001
 21
642.1234
 31
0.0
  0
LINE
  8
0
 10
762.6001
 20
642.1234
 30
0.0
 11
822.2383
 21
702.9619
 31
0.0
  0
LINE
  8
0
 10
822.2383
 20
702.9619
 30
0.0
 11
1525.2
 21
0
 31
0.0
  0
LINE
  8
0
 10
1525.2
 20
0
 30
0.0
 11
1465.562
 21
-59.63824
 31
0.0
  0
LINE
  8
0
 10
1465.562
 20
-59.63824
 30
0.0
 11
762.6001
 21
642.1234
 31
0.0
  0
LINE
  8
0
 10
762.6001
 20
642.1234
 30
0.0
 11
702.9619
 21
702.9619
 31
0.0
  0
LINE
  8
0
 10
702.9619
 20
702.9619
 30
0.0
 11
762.6001
 21
642.1234
 31
0.0
  0
LINE
  8
0
 10
762.6001
 20
642.1234
 30
0.0
 11
1465.562
 21
-59.63824
 31
0.0
  0
LINE
  8
0
 10
1465.562
 20
-59.63824
 30
0.0
 11
762.6001
 21
-761.3999
 31
0.0
  0
LINE
  8
0
 10
762.6001
 20
-761.3999
 30
0.0
 11
1465.562
 21
-59.63824
 31
0.0
  0
LINE
  8
0
 10
1465.562
 20
-59.63824
 30
0.0
 11
1525.2
 21
-120.4766
 31
0.0
  0
LINE
  8
0
 10
1525.2
 20
-119.2765
 30
0.0
 11
822.2383
 21
-822.2383
 31
0.0
  0
LINE
  8
0
 10
822.2383
 20
-822.2383
 30
0.0
 11
762.6001
 21
-761.3999
 31
0.0
  0
LINE
  8
0
 10
762.6001
 20
-761.3999
 30
0.0
 11
59.63823
 21
-59.63823
 31
0.0
  0
LINE
  8
0
 10
59.63823
 20
-59.63823
 30
0.0
 11
0
 21
-120.4766
 31
0.0
  0
LINE
  8
0
 10
-3.238881E-07
 20
-119.2765
 30
0.0
 11
702.9619
 21
-822.2383
 31
0.0
  0
LINE
  8
0
 10
702.9619
 20
-822.2383
 30
0.0
 11
762.6001
 21
-761.3999
 31
0.0
  0
CIRCLE
  8
0
 10
1000
 20
7000
 30
0.0
 40
100
  0
CIRCLE
  8
0
 10
4000
 20
7000
 30
0.0
 40
100
  0
CIRCLE
  8
0
 10
7000
 20
7000
 30
0.0
 40
100
  0
CIRCLE
  8
0
 10
100
 20
100
 30
0.0
 40
125
  0
CIRCLE
  8
0
 10
200
 20
200
 30
0.0
 40
200
  0
CIRCLE
  8
0
 10
300
 20
300
 30
0.0
 40
200
  0
CIRCLE
  8
0
 10
350
 20
350
 30
0.0
 40
200
  0
CIRCLE
  8
0
 10
360
 20
360
 30
0.0
 40
200
  0
CIRCLE
  8
0
 10
370
 20
370
 30
0.0
 40
200
  0
ENDSEC
  0
EOF
