  0
SECTION
  2
ENTITIES
  0
ARC
  8
0
 10
-247.5499
 20
295.8961
 30
0.0
 40
371.1683
 50
324.2096
 51
359.4143
  0
LINE
  8
0
 10
53.52658
 20
78.82742
 30
0.0
 11
0
 21
0
 31
0.0
  0
LINE
  8
0
 10
0
 20
0
 30
0.0
 11
-53.52819
 21
-78.83248
 31
0.0
  0
ARC
  8
0
 10
247.5384
 20
-295.9149
 30
0.0
 40
371.1683
 50
144.2068
 51
179.4116
  0
ARC
  8
0
 10
247.5383
 20
-288.2849
 30
0.0
 40
371.1683
 50
180.5893
 51
215.794
  0
LINE
  8
0
 10
-53.52235
 20
-505.3719
 30
0.0
 11
8.001503E-03
 21
-584.2029
 31
0.0
  0
LINE
  8
0
 10
8.001503E-03
 20
-584.2029
 30
0.0
 11
53.53674
 21
-663.0288
 31
0.0
  0
ARC
  8
0
 10
-247.5338
 20
-880.1058
 30
0.0
 40
371.1683
 50
.5875332
 51
35.79226
  0
CIRCLE
  8
0
 10
1000
 20
7000
 30
0.0
 40
100
  0
CIRCLE
  8
0
 10
1500
 20
7000
 30
0.0
 40
100
  0
CIRCLE
  8
0
 10
2000
 20
7000
 30
0.0
 40
100
  0
CIRCLE
  8
0
 10
100
 20
100
 30
0.0
 40
125
  0
CIRCLE
  8
0
 10
200
 20
200
 30
0.0
 40
200
  0
CIRCLE
  8
0
 10
300
 20
300
 30
0.0
 40
200
  0
CIRCLE
  8
0
 10
350
 20
350
 30
0.0
 40
200
  0
CIRCLE
  8
0
 10
360
 20
360
 30
0.0
 40
200
  0
CIRCLE
  8
0
 10
370
 20
370
 30
0.0
 40
200
  0
ENDSEC
  0
EOF
