  0
SECTION
  2
ENTITIES
  0
ARC
  8
0
 10
141.106
 20
311.3583
 30
0.0
 40
132.6496
 50
31.67021
 51
149.3396
  0
ARC
  8
0
 10
166.2926
 20
287.6131
 30
0.0
 40
166.5966
 50
146.731
 51
243.1317
  0
ARC
  8
0
 10
-697.6769
 20
-950.9369
 30
0.0
 40
1345.354
 50
44.9777
 51
54.11059
  0
ARC
  8
0
 10
-697.6769
 20
-950.9369
 30
0.0
 40
1345.354
 50
44.9777
 51
54.11059
  0
ARC
  8
0
 10
166.2926
 20
287.6131
 30
0.0
 40
166.5966
 50
146.731
 51
243.1317
  0
ARC
  8
0
 10
141.106
 20
311.3583
 30
0.0
 40
132.6496
 50
31.67021
 51
149.3396
  0
ARC
  8
0
 10
366.8982
 20
311.3586
 30
0.0
 40
132.6496
 50
30.66078
 51
148.33
  0
ARC
  8
0
 10
341.713
 20
287.6143
 30
0.0
 40
166.5966
 50
296.8692
 51
33.26994
  0
ARC
  8
0
 10
1205.685
 20
-950.9336
 30
0.0
 40
1345.354
 50
125.8896
 51
135.0225
  0
CIRCLE
  8
0
 10
1000
 20
7000
 30
0.0
 40
100
  0
CIRCLE
  8
0
 10
2000
 20
7000
 30
0.0
 40
100
  0
CIRCLE
  8
0
 10
3000
 20
7000
 30
0.0
 40
100
  0
CIRCLE
  8
0
 10
100
 20
100
 30
0.0
 40
127
  0
CIRCLE
  8
0
 10
200
 20
200
 30
0.0
 40
200
  0
CIRCLE
  8
0
 10
300
 20
300
 30
0.0
 40
200
  0
CIRCLE
  8
0
 10
350
 20
350
 30
0.0
 40
200
  0
CIRCLE
  8
0
 10
360
 20
360
 30
0.0
 40
200
  0
CIRCLE
  8
0
 10
370
 20
370
 30
0.0
 40
200
  0
ENDSEC
  0
EOF
