  0
SECTION
  2
ENTITIES
  0
LINE
  8
0
 10
0
 20
266.7
 30
0.0
 11
0
 21
241.9612
 31
0.0
  0
LINE
  8
0
 10
0
 20
241.9612
 30
0.0
 11
0
 21
1.621246E-05
 31
0.0
  0
LINE
  8
0
 10
0
 20
1.621246E-05
 30
0.0
 11
0
 21
241.9612
 31
0.0
  0
LINE
  8
0
 10
0
 20
241.9612
 30
0.0
 11
60.64576
 21
241.9612
 31
0.0
  0
LINE
  8
0
 10
60.64576
 20
241.9612
 30
0.0
 11
111.3531
 21
100.7171
 31
0.0
  0
LINE
  8
0
 10
111.3531
 20
100.7171
 30
0.0
 11
162.0605
 21
241.9612
 31
0.0
  0
LINE
  8
0
 10
162.0605
 20
241.9612
 30
0.0
 11
222.7063
 21
241.9612
 31
0.0
  0
LINE
  8
0
 10
222.7063
 20
241.181
 30
0.0
 11
222.7063
 21
159.9955
 31
0.0
  0
LINE
  8
0
 10
222.7063
 20
159.9955
 30
0.0
 11
230.6394
 21
152.2898
 31
0.0
  0
LINE
  8
0
 10
230.6394
 20
152.2898
 30
0.0
 11
290.0937
 21
241.9612
 31
0.0
  0
LINE
  8
0
 10
290.0937
 20
241.9612
 30
0.0
 11
350.7394
 21
241.9612
 31
0.0
  0
LINE
  8
0
 10
350.7394
 20
241.9612
 30
0.0
 11
270.8145
 21
120.5905
 31
0.0
  0
LINE
  8
0
 10
270.8145
 20
120.5905
 30
0.0
 11
350.7394
 21
-.7801902
 31
0.0
  0
LINE
  8
0
 10
350.7394
 20
-.7801902
 30
0.0
 11
290.0937
 21
-.7801902
 31
0.0
  0
LINE
  8
0
 10
290.0937
 20
-.7801902
 30
0.0
 11
230.6394
 21
88.89125
 31
0.0
  0
LINE
  8
0
 10
230.6394
 20
88.89125
 30
0.0
 11
222.7063
 21
81.18558
 31
0.0
  0
LINE
  8
0
 10
222.7063
 20
81.18558
 30
0.0
 11
222.7063
 21
1.621246E-05
 31
0.0
  0
LINE
  8
0
 10
222.7063
 20
1.621246E-05
 30
0.0
 11
182.7438
 21
1.621246E-05
 31
0.0
  0
LINE
  8
0
 10
182.7438
 20
1.621246E-05
 30
0.0
 11
182.7438
 21
100.7171
 31
0.0
  0
LINE
  8
0
 10
182.7438
 20
100.7171
 30
0.0
 11
131.0759
 21
1.621246E-05
 31
0.0
  0
LINE
  8
0
 10
131.0759
 20
1.621246E-05
 30
0.0
 11
111.3531
 21
1.621246E-05
 31
0.0
  0
LINE
  8
0
 10
111.3531
 20
1.621246E-05
 30
0.0
 11
91.63033
 21
1.621246E-05
 31
0.0
  0
LINE
  8
0
 10
91.63033
 20
1.621246E-05
 30
0.0
 11
39.96247
 21
100.7171
 31
0.0
  0
LINE
  8
0
 10
39.96247
 20
100.7171
 30
0.0
 11
39.96247
 21
1.621246E-05
 31
0.0
  0
LINE
  8
0
 10
39.96247
 20
1.621246E-05
 30
0.0
 11
0
 21
1.621246E-05
 31
0.0
  0
CIRCLE
  8
0
 10
1000
 20
7000
 30
0.0
 40
100
  0
CIRCLE
  8
0
 10
2000
 20
7000
 30
0.0
 40
100
  0
CIRCLE
  8
0
 10
3000
 20
7000
 30
0.0
 40
100
  0
CIRCLE
  8
0
 10
100
 20
100
 30
0.0
 40
125
  0
CIRCLE
  8
0
 10
200
 20
200
 30
0.0
 40
199
  0
CIRCLE
  8
0
 10
300
 20
300
 30
0.0
 40
200
  0
CIRCLE
  8
0
 10
350
 20
350
 30
0.0
 40
200
  0
CIRCLE
  8
0
 10
360
 20
360
 30
0.0
 40
200
  0
CIRCLE
  8
0
 10
370
 20
370
 30
0.0
 40
200
  0
ENDSEC
  0
EOF
