  0
SECTION
  2
ENTITIES
  0
LINE
  8
0
 10
2000
 20
2000
 30
0.0
 11
1905.773
 21
1757.561
 31
0.0
  0
LINE
  8
0
 10
1905.773
 20
1757.561
 30
0.0
 11
1646.08
 21
1742.859
 31
0.0
  0
LINE
  8
0
 10
1646.08
 20
1742.859
 30
0.0
 11
1847.538
 21
1578.33
 31
0.0
  0
LINE
  8
0
 10
1847.538
 20
1578.33
 30
0.0
 11
1646.08
 21
1742.859
 31
0.0
  0
LINE
  8
0
 10
1646.08
 20
1742.859
 30
0.0
 11
1905.773
 21
1757.561
 31
0.0
  0
LINE
  8
0
 10
1905.773
 20
1757.561
 30
0.0
 11
2000
 21
2000
 31
0.0
  0
LINE
  8
0
 10
2000
 20
2000
 30
0.0
 11
2094.226
 21
1757.561
 31
0.0
  0
LINE
  8
0
 10
2094.226
 20
1757.561
 30
0.0
 11
2353.919
 21
1742.859
 31
0.0
  0
LINE
  8
0
 10
2353.919
 20
1742.859
 30
0.0
 11
2152.462
 21
1578.33
 31
0.0
  0
LINE
  8
0
 10
2152.462
 20
1578.33
 30
0.0
 11
2218.737
 21
1326.803
 31
0.0
  0
LINE
  8
0
 10
2218.737
 20
1326.803
 30
0.0
 11
2000
 21
1467.559
 31
0.0
  0
LINE
  8
0
 10
2000
 20
1467.559
 30
0.0
 11
1781.265
 21
1326.803
 31
0.0
  0
LINE
  8
0
 10
1781.265
 20
1326.803
 30
0.0
 11
1847.538
 21
1578.33
 31
0.0
  0
LINE
  8
0
 10
1847.538
 20
1578.33
 30
0.0
 11
1781.265
 21
1326.803
 31
0.0
  0
LINE
  8
0
 10
1781.265
 20
1326.803
 30
0.0
 11
2000
 21
1467.559
 31
0.0
  0
LINE
  8
0
 10
2000
 20
1467.559
 30
0.0
 11
2000
 21
699.6154
 31
0.0
  0
LINE
  8
0
 10
2000
 20
699.6154
 30
0.0
 11
2000
 21
476
 31
0.0
  0
CIRCLE
  8
0
 10
1000
 20
7000
 30
0.0
 40
100
  0
CIRCLE
  8
0
 10
2000
 20
8000
 30
0.0
 40
100
  0
CIRCLE
  8
0
 10
3000
 20
7000
 30
0.0
 40
100
  0
CIRCLE
  8
0
 10
100
 20
100
 30
0.0
 40
125
  0
CIRCLE
  8
0
 10
200
 20
200
 30
0.0
 40
200
  0
CIRCLE
  8
0
 10
300
 20
300
 30
0.0
 40
200
  0
CIRCLE
  8
0
 10
350
 20
350
 30
0.0
 40
200
  0
CIRCLE
  8
0
 10
360
 20
360
 30
0.0
 40
200
  0
CIRCLE
  8
0
 10
370
 20
370
 30
0.0
 40
200
  0
ENDSEC
  0
EOF
