  0
SECTION
  2
ENTITIES
  0
LINE
  8
0
 10
254.0617
 20
174.625
 30
0.0
 11
127.0308
 21
0
 31
0.0
  0
LINE
  8
0
 10
127.0308
 20
0
 30
0.0
 11
0
 21
-174.625
 31
0.0
  0
LINE
  8
0
 10
0
 20
-174.625
 30
0.0
 11
-127.0308
 21
-349.25
 31
0.0
  0
LINE
  8
0
 10
-127.0308
 20
-349.25
 30
0.0
 11
0
 21
-523.875
 31
0.0
  0
LINE
  8
0
 10
0
 20
-523.875
 30
0.0
 11
127.0308
 21
-349.25
 31
0.0
  0
LINE
  8
0
 10
127.0308
 20
-349.25
 30
0.0
 11
254.0617
 21
-174.625
 31
0.0
  0
LINE
  8
0
 10
254.0617
 20
-174.625
 30
0.0
 11
381.0925
 21
0
 31
0.0
  0
LINE
  8
0
 10
381.0925
 20
0
 30
0.0
 11
254.0617
 21
-174.625
 31
0.0
  0
LINE
  8
0
 10
254.0617
 20
-174.625
 30
0.0
 11
381.0925
 21
-349.25
 31
0.0
  0
LINE
  8
0
 10
381.0925
 20
-349.25
 30
0.0
 11
508.1234
 21
-523.875
 31
0.0
  0
LINE
  8
0
 10
508.1234
 20
-523.875
 30
0.0
 11
635.1542
 21
-698.5
 31
0.0
  0
LINE
  8
0
 10
635.1542
 20
-698.4999
 30
0.0
 11
508.1234
 21
-873.1249
 31
0.0
  0
LINE
  8
0
 10
508.1234
 20
-873.1251
 30
0.0
 11
381.0925
 21
-698.5
 31
0.0
  0
LINE
  8
0
 10
381.0925
 20
-698.5
 30
0.0
 11
254.0617
 21
-523.875
 31
0.0
  0
LINE
  8
0
 10
254.0617
 20
-523.875
 30
0.0
 11
127.0308
 21
-349.25
 31
0.0
  0
LINE
  8
0
 10
127.0308
 20
-349.25
 30
0.0
 11
254.0617
 21
-523.875
 31
0.0
  0
CIRCLE
  8
0
 10
1000
 20
7000
 30
0.0
 40
100
  0
CIRCLE
  8
0
 10
2000
 20
7000
 30
0.0
 40
100
  0
CIRCLE
  8
0
 10
3000
 20
7000
 30
0.0
 40
100
  0
CIRCLE
  8
0
 10
100
 20
100
 30
0.0
 40
125
  0
CIRCLE
  8
0
 10
200
 20
200
 30
0.0
 40
200
  0
CIRCLE
  8
0
 10
300
 20
300
 30
0.0
 40
200
  0
CIRCLE
  8
0
 10
350
 20
350
 30
0.0
 40
200
  0
CIRCLE
  8
0
 10
360
 20
360
 30
0.0
 40
200
  0
CIRCLE
  8
0
 10
370
 20
370
 30
0.0
 40
200
  0
ENDSEC
  0
EOF
