  0
SECTION
  2
ENTITIES
  0
ARC
  8
0
 10
-345.0747
 20
822.2344
 30
0.0
 40
602.0961
 50
312.8756
 51
354.2584
  0
ARC
  8
0
 10
474.2681
 20
-60.23866
 30
0.0
 40
602.0961
 50
132.8756
 51
174.2585
  0
ARC
  8
0
 10
474.2681
 20
60.23284
 30
0.0
 40
602.0961
 50
185.7417
 51
227.1245
  0
ARC
  8
0
 10
-345.0747
 20
-822.2403
 30
0.0
 40
602.0961
 50
5.741832
 51
47.12467
  0
CIRCLE
  8
0
 10
1000
 20
7000
 30
0.0
 40
100
  0
CIRCLE
  8
0
 10
2000
 20
7000
 30
0.0
 40
100
  0
CIRCLE
  8
0
 10
3000
 20
7000
 30
0.0
 40
100
  0
CIRCLE
  8
0
 10
100
 20
100
 30
0.0
 40
125
  0
CIRCLE
  8
0
 10
200
 20
200
 30
0.0
 40
200
  0
CIRCLE
  8
0
 10
300
 20
300
 30
0.0
 40
200
  0
CIRCLE
  8
0
 10
350
 20
350
 30
0.0
 40
200
  0
CIRCLE
  8
0
 10
360
 20
360
 30
0.0
 40
200
  0
CIRCLE
  8
0
 10
370
 20
370
 30
0.0
 40
200
  0
ENDSEC
  0
EOF
