  0
SECTION
  2
ENTITIES
  0
LINE
  8
0
 10
0
 20
762
 30
0.0
 11
0
 21
220.9565
 31
0.0
  0
LINE
  8
0
 10
0
 20
220.9565
 30
0.0
 11
110.4783
 21
220.9565
 31
0.0
  0
LINE
  8
0
 10
110.4783
 20
220.9565
 30
0.0
 11
110.4783
 21
762
 31
0.0
  0
LINE
  8
0
 10
110.4783
 20
762
 30
0.0
 11
220.9565
 21
762
 31
0.0
  0
LINE
  8
0
 10
220.9565
 20
762
 30
0.0
 11
220.9565
 21
220.9565
 31
0.0
  0
LINE
  8
0
 10
220.9565
 20
220.9565
 30
0.0
 11
762
 21
220.9565
 31
0.0
  0
LINE
  8
0
 10
762
 20
220.9565
 30
0.0
 11
762
 21
110.4783
 31
0.0
  0
LINE
  8
0
 10
762
 20
110.4783
 30
0.0
 11
220.9565
 21
110.4782
 31
0.0
  0
LINE
  8
0
 10
220.9565
 20
110.4783
 30
0.0
 11
110.4783
 21
110.4783
 31
0.0
  0
LINE
  8
0
 10
110.4783
 20
110.4783
 30
0.0
 11
0
 21
110.4783
 31
0.0
  0
LINE
  8
0
 10
0
 20
110.4783
 30
0.0
 11
0
 21
0
 31
0.0
  0
LINE
  8
0
 10
0
 20
0
 30
0.0
 11
110.4783
 21
0
 31
0.0
  0
LINE
  8
0
 10
110.4783
 20
0
 30
0.0
 11
110.4783
 21
110.4783
 31
0.0
  0
LINE
  8
0
 10
110.4783
 20
110.4783
 30
0.0
 11
110.4783
 21
220.9565
 31
0.0
  0
LINE
  8
0
 10
110.4783
 20
220.9565
 30
0.0
 11
220.9565
 21
220.9565
 31
0.0
  0
LINE
  8
0
 10
220.9565
 20
220.9565
 30
0.0
 11
220.9565
 21
110.4783
 31
0.0
  0
LINE
  8
0
 10
220.9565
 20
110.4783
 30
0.0
 11
220.9565
 21
0
 31
0.0
  0
LINE
  8
0
 10
220.9565
 20
-1.525879E-05
 30
0.0
 11
762
 21
0
 31
0.0
  0
LINE
  8
0
 10
762
 20
1.525879E-05
 30
0.0
 11
762
 21
-541.0435
 31
0.0
  0
LINE
  8
0
 10
762
 20
-541.0435
 30
0.0
 11
220.9565
 21
-541.0435
 31
0.0
  0
LINE
  8
0
 10
220.9565
 20
-541.0435
 30
0.0
 11
220.9565
 21
0
 31
0.0
  0
LINE
  8
0
 10
220.9565
 20
0
 30
0.0
 11
110.4783
 21
0
 31
0.0
  0
LINE
  8
0
 10
110.4783
 20
0
 30
0.0
 11
110.4783
 21
-541.0435
 31
0.0
  0
LINE
  8
0
 10
110.4783
 20
-541.0435
 30
0.0
 11
0
 21
-541.0435
 31
0.0
  0
LINE
  8
0
 10
0
 20
-541.0435
 30
0.0
 11
0
 21
-651.5217
 31
0.0
  0
LINE
  8
0
 10
0
 20
-651.5217
 30
0.0
 11
110.4783
 21
-651.5217
 31
0.0
  0
LINE
  8
0
 10
110.4783
 20
-651.5217
 30
0.0
 11
220.9565
 21
-651.5217
 31
0.0
  0
LINE
  8
0
 10
220.9565
 20
-651.5217
 30
0.0
 11
762
 21
-651.5217
 31
0.0
  0
LINE
  8
0
 10
762
 20
-651.5217
 30
0.0
 11
762
 21
-762
 31
0.0
  0
LINE
  8
0
 10
762
 20
-762
 30
0.0
 11
220.9565
 21
-762
 31
0.0
  0
LINE
  8
0
 10
220.9565
 20
-762
 30
0.0
 11
220.9565
 21
-651.5217
 31
0.0
  0
LINE
  8
0
 10
220.9565
 20
-651.5217
 30
0.0
 11
220.9565
 21
-541.0435
 31
0.0
  0
LINE
  8
0
 10
220.9565
 20
-541.0435
 30
0.0
 11
110.4783
 21
-541.0435
 31
0.0
  0
LINE
  8
0
 10
110.4783
 20
-541.0435
 30
0.0
 11
110.4783
 21
-651.5217
 31
0.0
  0
LINE
  8
0
 10
110.4783
 20
-651.5217
 30
0.0
 11
110.4783
 21
-762
 31
0.0
  0
LINE
  8
0
 10
110.4783
 20
-762
 30
0.0
 11
0
 21
-762
 31
0.0
  0
CIRCLE
  8
0
 10
1000
 20
7000
 30
0.0
 40
100
  0
CIRCLE
  8
0
 10
2500
 20
7000
 30
0.0
 40
100
  0
CIRCLE
  8
0
 10
100
 20
100
 30
0.0
 40
125
  0
CIRCLE
  8
0
 10
200
 20
200
 30
0.0
 40
200
  0
CIRCLE
  8
0
 10
300
 20
300
 30
0.0
 40
200
  0
CIRCLE
  8
0
 10
350
 20
350
 30
0.0
 40
200
  0
CIRCLE
  8
0
 10
360
 20
360
 30
0.0
 40
200
  0
CIRCLE
  8
0
 10
370
 20
370
 30
0.0
 40
200
  0
ENDSEC
  0
EOF
