  0
SECTION
  2
ENTITIES
  0
ARC
  8
0
 10
152.2687
 20
375.4961
 30
0.0
 40
164.9757
 50
98.80928
 51
126.5587
  0
ARC
  8
0
 10
161.2937
 20
371.9548
 30
0.0
 40
173.2721
 50
128.2585
 51
161.4685
  0
ARC
  8
0
 10
492.6607
 20
259.492
 30
0.0
 40
523.2028
 50
161.3246
 51
180.5999
  0
ARC
  8
0
 10
492.6607
 20
259.492
 30
0.0
 40
523.2028
 50
161.3246
 51
180.5999
  0
ARC
  8
0
 10
161.2937
 20
371.9548
 30
0.0
 40
173.2721
 50
128.2585
 51
161.4685
  0
ARC
  8
0
 10
152.2687
 20
375.4961
 30
0.0
 40
164.9757
 50
98.80928
 51
126.5587
  0
ARC
  8
0
 10
101.7336
 20
375.4969
 30
0.0
 40
164.9757
 50
53.43973
 51
81.18916
  0
ARC
  8
0
 10
92.70845
 20
371.9558
 30
0.0
 40
173.2721
 50
18.53005
 51
51.73999
  0
ARC
  8
0
 10
-238.6618
 20
259.5025
 30
0.0
 40
523.2028
 50
359.3986
 51
18.67382
  0
ARC
  8
0
 10
-238.6622
 20
248.5426
 30
0.0
 40
523.2028
 50
341.3223
 51
.5978492
  0
ARC
  8
0
 10
92.70058
 20
136.0672
 30
0.0
 40
173.2721
 50
308.2562
 51
341.4661
  0
ARC
  8
0
 10
101.7255
 20
132.5256
 30
0.0
 40
164.9757
 50
278.807
 51
306.5565
  0
ARC
  8
0
 10
152.2605
 20
132.5229
 30
0.0
 40
164.9757
 50
233.4376
 51
261.187
  0
ARC
  8
0
 10
161.2858
 20
136.0636
 30
0.0
 40
173.2721
 50
198.5278
 51
231.7378
  0
ARC
  8
0
 10
492.6604
 20
248.5043
 30
0.0
 40
523.2028
 50
179.3964
 51
198.6717
  0
ARC
  8
0
 10
492.6604
 20
248.5043
 30
0.0
 40
523.2028
 50
179.3964
 51
198.6717
  0
ARC
  8
0
 10
161.2858
 20
136.0636
 30
0.0
 40
173.2721
 50
198.5278
 51
231.7378
  0
ARC
  8
0
 10
152.252
 20
-132.5039
 30
0.0
 40
164.9757
 50
98.80928
 51
126.5587
  0
CIRCLE
  8
0
 10
1000
 20
7000
 30
0.0
 40
100
  0
CIRCLE
  8
0
 10
1500
 20
7000
 30
0.0
 40
100
  0
CIRCLE
  8
0
 10
2000
 20
7000
 30
0.0
 40
100
  0
CIRCLE
  8
0
 10
100
 20
100
 30
0.0
 40
125
  0
CIRCLE
  8
0
 10
200
 20
200
 30
0.0
 40
200
  0
CIRCLE
  8
0
 10
300
 20
300
 30
0.0
 40
200
  0
CIRCLE
  8
0
 10
350
 20
350
 30
0.0
 40
200
  0
CIRCLE
  8
0
 10
360
 20
360
 30
0.0
 40
200
  0
CIRCLE
  8
0
 10
370
 20
370
 30
0.0
 40
200
  0
ENDSEC
  0
EOF
