  0
SECTION
  2
ENTITIES
  0
LINE
  8
0
 10
254
 20
381
 30
0.0
 11
-24.78545
 21
1.144409E-05
 31
0.0
  0
LINE
  8
0
 10
-24.78545
 20
1.144409E-05
 30
0.0
 11
254
 21
-381
 31
0.0
  0
LINE
  8
0
 10
254
 20
-381
 30
0.0
 11
532.7854
 21
-762
 31
0.0
  0
LINE
  8
0
 10
532.7854
 20
-762
 30
0.0
 11
726.3927
 21
-762
 31
0.0
  0
LINE
  8
0
 10
726.3927
 20
-762
 30
0.0
 11
532.7854
 21
-762
 31
0.0
  0
LINE
  8
0
 10
532.7854
 20
-762
 30
0.0
 11
253.9999
 21
-1143
 31
0.0
  0
CIRCLE
  8
0
 10
1000
 20
7000
 30
0.0
 40
100
  0
CIRCLE
  8
0
 10
1000
 20
8000
 30
0.0
 40
100
  0
CIRCLE
  8
0
 10
2500
 20
7000
 30
0.0
 40
100
  0
CIRCLE
  8
0
 10
2500
 20
8000
 30
0.0
 40
100
  0
CIRCLE
  8
0
 10
4000
 20
7000
 30
0.0
 40
100
  0
CIRCLE
  8
0
 10
4000
 20
8000
 30
0.0
 40
100
  0
CIRCLE
  8
0
 10
100
 20
100
 30
0.0
 40
125
  0
CIRCLE
  8
0
 10
200
 20
200
 30
0.0
 40
200
  0
CIRCLE
  8
0
 10
300
 20
300
 30
0.0
 40
200
  0
CIRCLE
  8
0
 10
350
 20
350
 30
0.0
 40
200
  0
CIRCLE
  8
0
 10
360
 20
360
 30
0.0
 40
200
  0
CIRCLE
  8
0
 10
370
 20
370
 30
0.0
 40
200
  0
ENDSEC
  0
EOF
