  0
SECTION
  2
ENTITIES
  0
ARC
  8
0
 10
64.95734
 20
236.5814
 30
0.0
 40
263.867
 50
31.64205
 51
129.239
  0
ARC
  8
0
 10
514.2428
 20
236.5844
 30
0.0
 40
263.867
 50
50.76181
 51
148.3589
  0
ARC
  8
0
 10
482.4337
 20
202.0531
 30
0.0
 40
310.7457
 50
319.6385
 51
50.2466
  0
ARC
  8
0
 10
-122.9235
 20
765.8223
 30
0.0
 40
1137.732
 50
303.2825
 51
317.7477
  0
LINE
  8
0
 10
501.4257
 20
-185.2946
 30
0.0
 11
403.451
 21
-257.5453
 31
0.0
  0
LINE
  8
0
 10
403.451
 20
-257.5453
 30
0.0
 11
289.6045
 21
-379.3026
 31
0.0
  0
LINE
  8
0
 10
289.6045
 20
-379.3026
 30
0.0
 11
175.7559
 21
-257.5471
 31
0.0
  0
LINE
  8
0
 10
175.7559
 20
-257.5471
 30
0.0
 11
77.78012
 21
-185.2979
 31
0.0
  0
ARC
  8
0
 10
702.1165
 20
765.828
 30
0.0
 40
1137.732
 50
222.2533
 51
236.7186
  0
ARC
  8
0
 10
96.76702
 20
202.0505
 30
0.0
 40
310.7457
 50
129.7542
 51
220.3626
  0
ARC
  8
0
 10
96.76702
 20
202.0505
 30
0.0
 40
310.7457
 50
129.7542
 51
220.3626
  0
ARC
  8
0
 10
702.1165
 20
765.828
 30
0.0
 40
1137.732
 50
222.2533
 51
236.7186
  0
LINE
  8
0
 10
77.78012
 20
-185.2979
 30
0.0
 11
175.7559
 21
-257.5471
 31
0.0
  0
ARC
  8
0
 10
-22.96127
 20
-496.4495
 30
0.0
 40
310.7457
 50
319.6385
 51
50.2466
  0
ARC
  8
0
 10
-628.3184
 20
67.31968
 30
0.0
 40
1137.732
 50
303.2825
 51
317.7477
  0
LINE
  8
0
 10
-3.971667
 20
-883.7989
 30
0.0
 11
-101.9464
 21
-956.0496
 31
0.0
  0
LINE
  8
0
 10
-101.9464
 20
-956.0496
 30
0.0
 11
-3.971667
 21
-883.7989
 31
0.0
  0
ARC
  8
0
 10
-628.3184
 20
67.31968
 30
0.0
 40
1137.732
 50
303.2825
 51
317.7477
  0
ARC
  8
0
 10
-22.96127
 20
-496.4495
 30
0.0
 40
310.7457
 50
319.6385
 51
50.2466
  0
ARC
  8
0
 10
8.847936
 20
-461.9182
 30
0.0
 40
263.867
 50
50.76181
 51
148.3589
  0
ARC
  8
0
 10
-440.4377
 20
-461.9212
 30
0.0
 40
263.867
 50
31.64205
 51
129.239
  0
ARC
  8
0
 10
-408.6279
 20
-496.4521
 30
0.0
 40
310.7457
 50
129.7542
 51
220.3626
  0
ARC
  8
0
 10
196.7216
 20
67.32545
 30
0.0
 40
1137.732
 50
222.2533
 51
236.7186
  0
ARC
  8
0
 10
-814.3886
 20
-1518.737
 30
0.0
 40
743.4648
 50
36.37564
 51
58.65333
  0
LINE
  8
0
 10
-215.7929
 20
-1077.808
 30
0.0
 11
-101.9464
 21
-956.0496
 31
0.0
  0
CIRCLE
  8
0
 10
1000
 20
7000
 30
0.0
 40
100
  0
CIRCLE
  8
0
 10
3000
 20
7000
 30
0.0
 40
100
  0
CIRCLE
  8
0
 10
5000
 20
7000
 30
0.0
 40
100
  0
CIRCLE
  8
0
 10
100
 20
100
 30
0.0
 40
127
  0
CIRCLE
  8
0
 10
200
 20
200
 30
0.0
 40
200
  0
CIRCLE
  8
0
 10
300
 20
300
 30
0.0
 40
200
  0
CIRCLE
  8
0
 10
350
 20
350
 30
0.0
 40
200
  0
CIRCLE
  8
0
 10
360
 20
360
 30
0.0
 40
200
  0
CIRCLE
  8
0
 10
370
 20
370
 30
0.0
 40
200
  0
ENDSEC
  0
EOF
