  0
SECTION
  2
ENTITIES
  0
ARC
  8
0
 10
293.6234
 20
258.3487
 30
0.0
 40
189.8116
 50
181.3121
 51
219.2359
  0
LINE
  8
0
 10
146.6048
 20
138.2906
 30
0.0
 11
235.3118
 21
31.89366
 31
0.0
  0
ARC
  8
0
 10
88.29551
 20
-88.16729
 30
0.0
 40
189.8116
 50
1.313104
 51
39.23683
  0
ARC
  8
0
 10
88.29551
 20
-79.46786
 30
0.0
 40
189.8116
 50
320.7632
 51
358.6869
  0
LINE
  8
0
 10
235.3118
 20
-199.5288
 30
0.0
 11
146.6048
 21
-305.9258
 31
0.0
  0
ARC
  8
0
 10
293.6236
 20
-425.9838
 30
0.0
 40
189.8116
 50
140.7643
 51
178.688
  0
CIRCLE
  8
0
 10
1000
 20
6000
 30
0.0
 40
100
  0
CIRCLE
  8
0
 10
1500
 20
8000
 30
0.0
 40
100
  0
CIRCLE
  8
0
 10
2000
 20
6000
 30
0.0
 40
100
  0
CIRCLE
  8
0
 10
100
 20
100
 30
0.0
 40
128
  0
CIRCLE
  8
0
 10
200
 20
200
 30
0.0
 40
200
  0
CIRCLE
  8
0
 10
300
 20
300
 30
0.0
 40
200
  0
CIRCLE
  8
0
 10
350
 20
350
 30
0.0
 40
200
  0
CIRCLE
  8
0
 10
360
 20
360
 30
0.0
 40
200
  0
CIRCLE
  8
0
 10
370
 20
370
 30
0.0
 40
200
  0
ENDSEC
  0
EOF
