  0
SECTION
  2
ENTITIES
  0
LINE
  8
0
 10
127
 20
254
 30
0.0
 11
635
 21
254
 31
0.0
  0
LINE
  8
0
 10
635
 20
254
 30
0.0
 11
762
 21
7.629394E-06
 31
0.0
  0
LINE
  8
0
 10
762
 20
7.629394E-06
 30
0.0
 11
635
 21
-254
 31
0.0
  0
LINE
  8
0
 10
635
 20
-254
 30
0.0
 11
762
 21
-508
 31
0.0
  0
LINE
  8
0
 10
762
 20
-508
 30
0.0
 11
635
 21
-254
 31
0.0
  0
LINE
  8
0
 10
635
 20
-254
 30
0.0
 11
1143
 21
-254
 31
0.0
  0
LINE
  8
0
 10
1143
 20
-254
 30
0.0
 11
1651
 21
-254
 31
0.0
  0
LINE
  8
0
 10
1651
 20
-254
 30
0.0
 11
1524
 21
7.629394E-06
 31
0.0
  0
LINE
  8
0
 10
1524
 20
7.629394E-06
 30
0.0
 11
1651
 21
254
 31
0.0
  0
LINE
  8
0
 10
1651
 20
254
 30
0.0
 11
1524
 21
7.629394E-06
 31
0.0
  0
LINE
  8
0
 10
1524
 20
7.629394E-06
 30
0.0
 11
1651
 21
-254
 31
0.0
  0
LINE
  8
0
 10
1651
 20
-254
 30
0.0
 11
1524
 21
-508
 31
0.0
  0
LINE
  8
0
 10
1524
 20
-508
 30
0.0
 11
1651
 21
-762
 31
0.0
  0
LINE
  8
0
 10
1651
 20
-762
 30
0.0
 11
2159
 21
-762
 31
0.0
  0
LINE
  8
0
 10
2159
 20
-762
 30
0.0
 11
2032
 21
-1016
 31
0.0
  0
LINE
  8
0
 10
2032
 20
-1016
 30
0.0
 11
2159
 21
-1270
 31
0.0
  0
LINE
  8
0
 10
2159
 20
-1270
 30
0.0
 11
1651
 21
-1270
 31
0.0
  0
LINE
  8
0
 10
1651
 20
-1270
 30
0.0
 11
1143
 21
-1270
 31
0.0
  0
LINE
  8
0
 10
1143
 20
-1270
 30
0.0
 11
1270
 21
-1016
 31
0.0
  0
LINE
  8
0
 10
1270
 20
-1016
 30
0.0
 11
1143
 21
-762
 31
0.0
  0
LINE
  8
0
 10
1143
 20
-762
 30
0.0
 11
635
 21
-762
 31
0.0
  0
LINE
  8
0
 10
635
 20
-762
 30
0.0
 11
762
 21
-508
 31
0.0
  0
LINE
  8
0
 10
762
 20
-508
 30
0.0
 11
635
 21
-762
 31
0.0
  0
LINE
  8
0
 10
635
 20
-762
 30
0.0
 11
508
 21
-1016
 31
0.0
  0
LINE
  8
0
 10
508
 20
-1016
 30
0.0
 11
635
 21
-1270
 31
0.0
  0
LINE
  8
0
 10
635
 20
-1270
 30
0.0
 11
508
 21
-1524
 31
0.0
  0
LINE
  8
0
 10
508
 20
-1524
 30
0.0
 11
635
 21
-1778
 31
0.0
  0
LINE
  8
0
 10
635
 20
-1778
 30
0.0
 11
1143
 21
-1778
 31
0.0
  0
LINE
  8
0
 10
1143
 20
-1778
 30
0.0
 11
1270
 21
-1524
 31
0.0
  0
LINE
  8
0
 10
1270
 20
-1524
 30
0.0
 11
1143
 21
-1270
 31
0.0
  0
LINE
  8
0
 10
1143
 20
-1270
 30
0.0
 11
1270
 21
-1524
 31
0.0
  0
LINE
  8
0
 10
1270
 20
-1524
 30
0.0
 11
1143
 21
-1778
 31
0.0
  0
LINE
  8
0
 10
1143
 20
-1778
 30
0.0
 11
1016
 21
-2032
 31
0.0
  0
LINE
  8
0
 10
1016
 20
-2032
 30
0.0
 11
1143
 21
-2286
 31
0.0
  0
LINE
  8
0
 10
1143
 20
-2286
 30
0.0
 11
1016
 21
-2032
 31
0.0
  0
LINE
  8
0
 10
1016
 20
-2032
 30
0.0
 11
1143
 21
-1778
 31
0.0
  0
LINE
  8
0
 10
1143
 20
-1778
 30
0.0
 11
1651
 21
-1778
 31
0.0
  0
LINE
  8
0
 10
1651
 20
-1778
 30
0.0
 11
1778
 21
-2032
 31
0.0
  0
LINE
  8
0
 10
1778
 20
-2032
 30
0.0
 11
1651
 21
-2286
 31
0.0
  0
LINE
  8
0
 10
1651
 20
-2286
 30
0.0
 11
1778
 21
-2540
 31
0.0
  0
LINE
  8
0
 10
1778
 20
-2540
 30
0.0
 11
1651
 21
-2794
 31
0.0
  0
LINE
  8
0
 10
1651
 20
-2794
 30
0.0
 11
1143
 21
-2794
 31
0.0
  0
LINE
  8
0
 10
1143
 20
-2794
 30
0.0
 11
1016
 21
-2540
 31
0.0
  0
LINE
  8
0
 10
1016
 20
-2540
 30
0.0
 11
1143
 21
-2286
 31
0.0
  0
LINE
  8
0
 10
1143
 20
-2286
 30
0.0
 11
635
 21
-2286
 31
0.0
  0
LINE
  8
0
 10
635
 20
-2286
 30
0.0
 11
127
 21
-2286
 31
0.0
  0
LINE
  8
0
 10
127
 20
-2286
 30
0.0
 11
254
 21
-2540
 31
0.0
  0
LINE
  8
0
 10
254
 20
-2540
 30
0.0
 11
127
 21
-2794
 31
0.0
  0
CIRCLE
  8
0
 10
1000
 20
7000
 30
0.0
 40
100
  0
CIRCLE
  8
0
 10
4000
 20
7000
 30
0.0
 40
100
  0
CIRCLE
  8
0
 10
7000
 20
7000
 30
0.0
 40
100
  0
CIRCLE
  8
0
 10
100
 20
100
 30
0.0
 40
125
  0
CIRCLE
  8
0
 10
200
 20
200
 30
0.0
 40
200
  0
CIRCLE
  8
0
 10
300
 20
300
 30
0.0
 40
200
  0
CIRCLE
  8
0
 10
350
 20
350
 30
0.0
 40
200
  0
CIRCLE
  8
0
 10
360
 20
360
 30
0.0
 40
200
  0
CIRCLE
  8
0
 10
370
 20
370
 30
0.0
 40
200
  0
ENDSEC
  0
EOF
