  0
SECTION
  2
ENTITIES
  0
LINE
  8
0
 10
0
 20
387.6356
 30
0.0
 11
0
 21
352.6292
 31
0.0
  0
LINE
  8
0
 10
0
 20
352.6292
 30
0.0
 11
-115.1853
 21
151.6924
 31
0.0
  0
LINE
  8
0
 10
-115.1853
 20
151.6924
 30
0.0
 11
0
 21
352.6292
 31
0.0
  0
LINE
  8
0
 10
0
 20
352.6292
 30
0.0
 11
231.6102
 21
352.6292
 31
0.0
  0
LINE
  8
0
 10
231.6102
 20
352.6292
 30
0.0
 11
346.7954
 21
151.6924
 31
0.0
  0
LINE
  8
0
 10
346.7954
 20
151.6924
 30
0.0
 11
381.5835
 21
139.7595
 31
0.0
  0
LINE
  8
0
 10
381.5835
 20
139.7595
 30
0.0
 11
613.1938
 21
139.7595
 31
0.0
  0
LINE
  8
0
 10
613.1938
 20
139.7595
 30
0.0
 11
728.379
 21
-61.17736
 31
0.0
  0
LINE
  8
0
 10
728.379
 20
-61.17736
 30
0.0
 11
613.1938
 21
-262.1143
 31
0.0
  0
LINE
  8
0
 10
613.1938
 20
-262.1143
 30
0.0
 11
381.5835
 21
-262.1143
 31
0.0
  0
LINE
  8
0
 10
381.5835
 20
-262.1143
 30
0.0
 11
266.3983
 21
-61.17736
 31
0.0
  0
LINE
  8
0
 10
266.3983
 20
-61.17736
 30
0.0
 11
381.5835
 21
139.7595
 31
0.0
  0
LINE
  8
0
 10
381.5835
 20
139.7595
 30
0.0
 11
346.7954
 21
151.6924
 31
0.0
  0
LINE
  8
0
 10
346.7954
 20
151.6924
 30
0.0
 11
231.6102
 21
-49.2444
 31
0.0
  0
LINE
  8
0
 10
231.6102
 20
-49.2444
 30
0.0
 11
0
 21
-49.2444
 31
0.0
  0
LINE
  8
0
 10
0
 20
-49.2444
 30
0.0
 11
-115.1853
 21
151.6924
 31
0.0
  0
LINE
  8
0
 10
-115.1853
 20
151.6924
 30
0.0
 11
0
 21
-49.2444
 31
0.0
  0
CIRCLE
  8
0
 10
1000
 20
7000
 30
0.0
 40
100
  0
CIRCLE
  8
0
 10
2500
 20
7000
 30
0.0
 40
100
  0
CIRCLE
  8
0
 10
4000
 20
7000
 30
0.0
 40
100
  0
CIRCLE
  8
0
 10
100
 20
100
 30
0.0
 40
125
  0
CIRCLE
  8
0
 10
200
 20
200
 30
0.0
 40
200
  0
CIRCLE
  8
0
 10
300
 20
300
 30
0.0
 40
200
  0
CIRCLE
  8
0
 10
350
 20
350
 30
0.0
 40
200
  0
CIRCLE
  8
0
 10
360
 20
360
 30
0.0
 40
200
  0
CIRCLE
  8
0
 10
370
 20
370
 30
0.0
 40
200
  0
ENDSEC
  0
EOF
