  0
SECTION
  2
ENTITIES
  0
ARC
  8
0
 10
259.1024
 20
769.4077
 30
0.0
 40
198.8837
 50
26.47079
 51
161.0481
  0
ARC
  8
0
 10
377.8703
 20
725.1477
 30
0.0
 40
325.6045
 50
160.4694
 51
207.8577
  0
ARC
  8
0
 10
724.881
 20
908.0328
 30
0.0
 40
717.8586
 50
207.821
 51
227.5515
  0
ARC
  8
0
 10
-483.4023
 20
-335.8787
 30
0.0
 40
1016.839
 50
25.13688
 51
44.6189
  0
ARC
  8
0
 10
615.1749
 20
7.409178
 30
0.0
 40
198.8837
 50
18.95259
 51
153.5298
  0
ARC
  8
0
 10
496.4074
 20
-36.85194
 30
0.0
 40
325.6045
 50
332.1429
 51
19.53125
  0
ARC
  8
0
 10
149.3951
 20
146.0299
 30
0.0
 40
717.8586
 50
312.4491
 51
332.1797
  0
ARC
  8
0
 10
1357.69
 20
-1097.87
 30
0.0
 40
1016.839
 50
135.3816
 51
154.8636
  0
CIRCLE
  8
0
 10
1000
 20
7000
 30
0.0
 40
100
  0
CIRCLE
  8
0
 10
1000
 20
8000
 30
0.0
 40
100
  0
CIRCLE
  8
0
 10
2500
 20
7000
 30
0.0
 40
100
  0
CIRCLE
  8
0
 10
2500
 20
8000
 30
0.0
 40
100
  0
CIRCLE
  8
0
 10
4000
 20
7000
 30
0.0
 40
100
  0
CIRCLE
  8
0
 10
4000
 20
8000
 30
0.0
 40
100
  0
CIRCLE
  8
0
 10
100
 20
100
 30
0.0
 40
125
  0
CIRCLE
  8
0
 10
200
 20
200
 30
0.0
 40
200
  0
CIRCLE
  8
0
 10
300
 20
300
 30
0.0
 40
200
  0
CIRCLE
  8
0
 10
350
 20
350
 30
0.0
 40
200
  0
CIRCLE
  8
0
 10
360
 20
360
 30
0.0
 40
200
  0
CIRCLE
  8
0
 10
370
 20
370
 30
0.0
 40
200
  0
ENDSEC
  0
EOF
