  0
SECTION
  2
ENTITIES
  0
LINE
  8
0
 10
0
 20
126.1724
 30
0.0
 11
71.61201
 21
-95.09769
 31
0.0
  0
LINE
  8
0
 10
71.61201
 20
-95.09769
 30
0.0
 11
314.7604
 21
-95.09769
 31
0.0
  0
LINE
  8
0
 10
314.7604
 20
-95.09769
 30
0.0
 11
557.8859
 21
-91.76812
 31
0.0
  0
LINE
  8
0
 10
557.8859
 20
-91.76812
 30
0.0
 11
632.5213
 21
-312.0368
 31
0.0
  0
LINE
  8
0
 10
632.5213
 20
-312.0368
 30
0.0
 11
699.4999
 21
-87.61812
 31
0.0
  0
LINE
  8
0
 10
699.4999
 20
-87.61812
 30
0.0
 11
934.0626
 21
-90.57752
 31
0.0
  0
LINE
  8
0
 10
934.0626
 20
-90.57752
 30
0.0
 11
746.2186
 21
46.54804
 31
0.0
  0
LINE
  8
0
 10
746.2186
 20
46.54804
 30
0.0
 11
822.1451
 21
277.5378
 31
0.0
  0
LINE
  8
0
 10
822.1451
 20
277.5378
 30
0.0
 11
626.1708
 21
133.6098
 31
0.0
  0
LINE
  8
0
 10
626.1708
 20
133.6098
 30
0.0
 11
437.4752
 21
269.5604
 31
0.0
  0
LINE
  8
0
 10
437.4752
 20
269.5604
 30
0.0
 11
510.7344
 21
48.83046
 31
0.0
  0
LINE
  8
0
 10
510.7344
 20
48.83046
 30
0.0
 11
314.7604
 21
-95.09769
 31
0.0
  0
LINE
  8
0
 10
314.7604
 20
-95.09769
 30
0.0
 11
116.8339
 21
-236.3289
 31
0.0
  0
LINE
  8
0
 10
116.8339
 20
-236.3289
 30
0.0
 11
187.0636
 21
-458.0414
 31
0.0
  0
LINE
  8
0
 10
187.0636
 20
-458.0414
 30
0.0
 11
.2384356
 21
-316.8102
 31
0.0
  0
LINE
  8
0
 10
.2384356
 20
-316.8102
 30
0.0
 11
-187.0636
 21
-458.0414
 31
0.0
  0
LINE
  8
0
 10
-187.0636
 20
-458.0414
 30
0.0
 11
-116.8339
 21
-236.3289
 31
0.0
  0
LINE
  8
0
 10
-116.8339
 20
-236.3289
 30
0.0
 11
-314.7604
 21
-95.09769
 31
0.0
  0
LINE
  8
0
 10
-314.7604
 20
-95.09769
 30
0.0
 11
-116.8339
 21
-236.3289
 31
0.0
  0
LINE
  8
0
 10
-116.8339
 20
-236.3289
 30
0.0
 11
-187.0636
 21
-458.0414
 31
0.0
  0
LINE
  8
0
 10
-187.0636
 20
-458.0414
 30
0.0
 11
.2384356
 21
-316.8102
 31
0.0
  0
LINE
  8
0
 10
.2384356
 20
-316.8102
 30
0.0
 11
187.0636
 21
-458.0414
 31
0.0
  0
LINE
  8
0
 10
187.0636
 20
-458.0414
 30
0.0
 11
259.8687
 21
-680.6384
 31
0.0
  0
LINE
  8
0
 10
259.8687
 20
-680.6384
 30
0.0
 11
65.40714
 21
-811.8367
 31
0.0
  0
LINE
  8
0
 10
65.40714
 20
-811.8367
 30
0.0
 11
259.8687
 21
-680.6384
 31
0.0
  0
LINE
  8
0
 10
259.8687
 20
-680.6384
 30
0.0
 11
187.0636
 21
-458.0414
 31
0.0
  0
LINE
  8
0
 10
187.0636
 20
-458.0414
 30
0.0
 11
373.8903
 21
-596.5497
 31
0.0
  0
LINE
  8
0
 10
373.8903
 20
-596.5497
 30
0.0
 11
571.8065
 21
-455.3044
 31
0.0
  0
LINE
  8
0
 10
571.8065
 20
-455.3044
 30
0.0
 11
492.7409
 21
-685.2385
 31
0.0
  0
LINE
  8
0
 10
492.7409
 20
-685.2385
 30
0.0
 11
682.3265
 21
-813.9121
 31
0.0
  0
LINE
  8
0
 10
682.3265
 20
-813.9121
 30
0.0
 11
446.1682
 21
-820.6792
 31
0.0
  0
LINE
  8
0
 10
446.1682
 20
-820.6792
 30
0.0
 11
367.1028
 21
-1050.614
 31
0.0
  0
LINE
  8
0
 10
367.1028
 20
-1050.614
 30
0.0
 11
297.9075
 21
-817.5186
 31
0.0
  0
LINE
  8
0
 10
297.9075
 20
-817.5186
 30
0.0
 11
65.40714
 21
-811.8367
 31
0.0
  0
LINE
  8
0
 10
65.40718
 20
-811.8367
 30
0.0
 11
-132.5195
 21
-953.0677
 31
0.0
  0
LINE
  8
0
 10
-132.5195
 20
-953.0677
 30
0.0
 11
-62.2895
 21
-1174.782
 31
0.0
  0
LINE
  8
0
 10
-62.2895
 20
-1174.782
 30
0.0
 11
-132.5195
 21
-953.0677
 31
0.0
  0
LINE
  8
0
 10
-132.5195
 20
-953.0677
 30
0.0
 11
65.40718
 21
-811.8367
 31
0.0
  0
LINE
  8
0
 10
65.40718
 20
-811.8367
 30
0.0
 11
-177.7411
 21
-811.8367
 31
0.0
  0
LINE
  8
0
 10
-177.7411
 20
-811.8367
 30
0.0
 11
-249.3531
 21
-590.5665
 31
0.0
  0
LINE
  8
0
 10
-249.3531
 20
-590.5665
 30
0.0
 11
-320.9653
 21
-811.8367
 31
0.0
  0
LINE
  8
0
 10
-320.9653
 20
-811.8367
 30
0.0
 11
-573.1852
 21
-817.9472
 31
0.0
  0
LINE
  8
0
 10
-573.1852
 20
-817.9472
 30
0.0
 11
-366.187
 21
-953.0677
 31
0.0
  0
LINE
  8
0
 10
-366.187
 20
-953.0677
 30
0.0
 11
-436.417
 21
-1174.782
 31
0.0
  0
LINE
  8
0
 10
-436.417
 20
-1174.782
 30
0.0
 11
-249.1147
 21
-1033.55
 31
0.0
  0
LINE
  8
0
 10
-249.1147
 20
-1033.55
 30
0.0
 11
-62.2895
 21
-1174.782
 31
0.0
  0
LINE
  8
0
 10
-62.2895
 20
-1174.782
 30
0.0
 11
-249.1147
 21
-1033.55
 31
0.0
  0
LINE
  8
0
 10
-249.1147
 20
-1033.55
 30
0.0
 11
-436.417
 21
-1174.782
 31
0.0
  0
LINE
  8
0
 10
-436.417
 20
-1174.782
 30
0.0
 11
-512.3432
 21
-1405.771
 31
0.0
  0
LINE
  8
0
 10
-512.3432
 20
-1405.771
 30
0.0
 11
-324.4994
 21
-1542.896
 31
0.0
  0
LINE
  8
0
 10
-324.4994
 20
-1542.896
 30
0.0
 11
-81.35098
 21
-1542.896
 31
0.0
  0
LINE
  8
0
 10
-81.35098
 20
-1542.896
 30
0.0
 11
-9.738964
 21
-1321.628
 31
0.0
  0
CIRCLE
  8
0
 10
1000
 20
7000
 30
0.0
 40
100
  0
CIRCLE
  8
0
 10
3500
 20
7000
 30
0.0
 40
100
  0
CIRCLE
  8
0
 10
6000
 20
7000
 30
0.0
 40
100
  0
CIRCLE
  8
0
 10
100
 20
100
 30
0.0
 40
129
  0
CIRCLE
  8
0
 10
200
 20
200
 30
0.0
 40
206
  0
CIRCLE
  8
0
 10
300
 20
300
 30
0.0
 40
200
  0
CIRCLE
  8
0
 10
350
 20
350
 30
0.0
 40
202
  0
CIRCLE
  8
0
 10
360
 20
360
 30
0.0
 40
200
  0
CIRCLE
  8
0
 10
370
 20
370
 30
0.0
 40
200
  0
ENDSEC
  0
EOF
