  0
SECTION
  2
ENTITIES
  0
ARC
  8
0
 10
4407.268
 20
2415.785
 30
0.0
 40
493.5964
 50
317.9908
 51
354.9948
  0
LINE
  8
0
 10
4774.028
 20
2085.445
 30
0.0
 11
4563.039
 21
1898.015
 31
0.0
  0
ARC
  8
0
 10
4929.799
 20
1567.676
 30
0.0
 40
493.5964
 50
137.991
 51
174.9949
  0
ARC
  8
0
 10
4929.807
 20
1653.721
 30
0.0
 40
493.5964
 50
184.9958
 51
221.9998
  0
LINE
  8
0
 10
4563.013
 20
1323.452
 30
0.0
 11
4773.987
 21
1136.003
 31
0.0
  0
ARC
  8
0
 10
4407.199
 20
805.694
 30
0.0
 40
493.5964
 50
5.000583
 51
42.00452
  0
CIRCLE
  8
0
 10
1000
 20
7000
 30
0.0
 40
100
  0
CIRCLE
  8
0
 10
2000
 20
8000
 30
0.0
 40
100
  0
CIRCLE
  8
0
 10
3000
 20
7000
 30
0.0
 40
100
  0
CIRCLE
  8
0
 10
100
 20
100
 30
0.0
 40
128
  0
CIRCLE
  8
0
 10
200
 20
200
 30
0.0
 40
200
  0
CIRCLE
  8
0
 10
300
 20
300
 30
0.0
 40
200
  0
CIRCLE
  8
0
 10
350
 20
350
 30
0.0
 40
200
  0
CIRCLE
  8
0
 10
360
 20
360
 30
0.0
 40
200
  0
CIRCLE
  8
0
 10
370
 20
370
 30
0.0
 40
200
  0
ENDSEC
  0
EOF
