  0
SECTION
  2
ENTITIES
  0
LINE
  8
0
 10
-182.0446
 20
539.5203
 30
0.0
 11
172.0099
 21
539.5203
 31
0.0
  0
LINE
  8
0
 10
172.0099
 20
539.5203
 30
0.0
 11
326.4182
 21
222.0203
 31
0.0
  0
LINE
  8
0
 10
326.4182
 20
222.0203
 30
0.0
 11
680.4727
 21
222.0203
 31
0.0
  0
LINE
  8
0
 10
680.4727
 20
222.0203
 30
0.0
 11
834.881
 21
539.5203
 31
0.0
  0
LINE
  8
0
 10
834.881
 20
539.5203
 30
0.0
 11
680.4727
 21
222.0203
 31
0.0
  0
LINE
  8
0
 10
680.4727
 20
222.0203
 30
0.0
 11
834.881
 21
-95.47967
 31
0.0
  0
LINE
  8
0
 10
834.881
 20
-95.47967
 30
0.0
 11
680.4727
 21
222.0203
 31
0.0
  0
LINE
  8
0
 10
680.4727
 20
222.0203
 30
0.0
 11
326.4182
 21
222.0203
 31
0.0
  0
LINE
  8
0
 10
326.4182
 20
222.0203
 30
0.0
 11
172.0099
 21
-95.47967
 31
0.0
  0
LINE
  8
0
 10
172.0099
 20
-95.47967
 30
0.0
 11
-182.0446
 21
-95.47967
 31
0.0
  0
CIRCLE
  8
0
 10
1000
 20
7000
 30
0.0
 40
100
  0
CIRCLE
  8
0
 10
3000
 20
7000
 30
0.0
 40
100
  0
CIRCLE
  8
0
 10
5000
 20
7000
 30
0.0
 40
100
  0
CIRCLE
  8
0
 10
100
 20
100
 30
0.0
 40
125
  0
CIRCLE
  8
0
 10
200
 20
200
 30
0.0
 40
200
  0
CIRCLE
  8
0
 10
300
 20
300
 30
0.0
 40
200
  0
CIRCLE
  8
0
 10
350
 20
350
 30
0.0
 40
200
  0
CIRCLE
  8
0
 10
360
 20
360
 30
0.0
 40
200
  0
CIRCLE
  8
0
 10
370
 20
370
 30
0.0
 40
200
  0
ENDSEC
  0
EOF
