  0
SECTION
  2
ENTITIES
  0
ARC
  8
0
 10
4826.5
 20
2776.688
 30
0.0
 40
206.4457
 50
292.6198
 51
1.355152E-04
  0
ARC
  8
0
 10
4985.305
 20
2395.558
 30
0.0
 40
206.4457
 50
112.6199
 51
180
  0
ARC
  8
0
 10
4985.305
 20
2395.559
 30
0.0
 40
206.4457
 50
180.0002
 51
247.3806
  0
ARC
  8
0
 10
4826.5
 20
2014.688
 30
0.0
 40
206.4457
 50
1.355152E-04
 51
67.38023
  0
CIRCLE
  8
0
 10
1000
 20
7000
 30
0.0
 40
100
  0
CIRCLE
  8
0
 10
1000
 20
8000
 30
0.0
 40
100
  0
CIRCLE
  8
0
 10
2000
 20
7000
 30
0.0
 40
100
  0
CIRCLE
  8
0
 10
2000
 20
8000
 30
0.0
 40
100
  0
CIRCLE
  8
0
 10
100
 20
100
 30
0.0
 40
125
  0
CIRCLE
  8
0
 10
200
 20
200
 30
0.0
 40
200
  0
CIRCLE
  8
0
 10
300
 20
300
 30
0.0
 40
200
  0
CIRCLE
  8
0
 10
350
 20
350
 30
0.0
 40
200
  0
CIRCLE
  8
0
 10
360
 20
360
 30
0.0
 40
200
  0
CIRCLE
  8
0
 10
370
 20
370
 30
0.0
 40
200
  0
ENDSEC
  0
EOF
