  0
SECTION
  2
ENTITIES
  0
LINE
  8
0
 10
251.3497
 20
381
 30
0.0
 11
251.3497
 21
113.9033
 31
0.0
  0
LINE
  8
0
 10
251.3497
 20
113.9033
 30
0.0
 11
3.774894E-06
 21
5.722046E-06
 31
0.0
  0
LINE
  8
0
 10
3.774894E-06
 20
5.722046E-06
 30
0.0
 11
3.774894E-06
 21
-267.0967
 31
0.0
  0
LINE
  8
0
 10
3.774894E-06
 20
-267.0967
 30
0.0
 11
251.3497
 21
-381
 31
0.0
  0
LINE
  8
0
 10
251.3497
 20
-381
 30
0.0
 11
251.3497
 21
-648.0967
 31
0.0
  0
LINE
  8
0
 10
251.3497
 20
-648.0967
 30
0.0
 11
502.6994
 21
-762
 31
0.0
  0
LINE
  8
0
 10
502.6994
 20
-762
 30
0.0
 11
502.6994
 21
-1029.097
 31
0.0
  0
LINE
  8
0
 10
502.6994
 20
-1029.097
 30
0.0
 11
251.3497
 21
-1143
 31
0.0
  0
CIRCLE
  8
0
 10
1000
 20
7000
 30
0.0
 40
100
  0
CIRCLE
  8
0
 10
1000
 20
8000
 30
0.0
 40
100
  0
CIRCLE
  8
0
 10
2000
 20
7000
 30
0.0
 40
100
  0
CIRCLE
  8
0
 10
2000
 20
8000
 30
0.0
 40
100
  0
CIRCLE
  8
0
 10
3000
 20
7000
 30
0.0
 40
100
  0
CIRCLE
  8
0
 10
3000
 20
8000
 30
0.0
 40
100
  0
CIRCLE
  8
0
 10
100
 20
100
 30
0.0
 40
127
  0
CIRCLE
  8
0
 10
200
 20
200
 30
0.0
 40
200
  0
CIRCLE
  8
0
 10
300
 20
300
 30
0.0
 40
200
  0
CIRCLE
  8
0
 10
350
 20
350
 30
0.0
 40
200
  0
CIRCLE
  8
0
 10
360
 20
360
 30
0.0
 40
200
  0
CIRCLE
  8
0
 10
370
 20
370
 30
0.0
 40
200
  0
ENDSEC
  0
EOF
