  0
SECTION
  2
ENTITIES
  0
LINE
  8
0
 10
-126.7339
 20
0
 30
0.0
 11
0
 21
0
 31
0.0
  0
LINE
  8
0
 10
0
 20
0
 30
0.0
 11
-126.7339
 21
-99.695
 31
0.0
  0
LINE
  8
0
 10
-126.7339
 20
-99.695
 30
0.0
 11
0
 21
-199.39
 31
0.0
  0
LINE
  8
0
 10
0
 20
-199.39
 30
0.0
 11
-126.7339
 21
-299.085
 31
0.0
  0
LINE
  8
0
 10
-126.7339
 20
-299.085
 30
0.0
 11
0
 21
-398.78
 31
0.0
  0
LINE
  8
0
 10
0
 20
-398.78
 30
0.0
 11
126.7339
 21
-398.78
 31
0.0
  0
LINE
  8
0
 10
126.7339
 20
-398.78
 30
0.0
 11
0
 21
-299.085
 31
0.0
  0
LINE
  8
0
 10
0
 20
-299.085
 30
0.0
 11
126.7339
 21
-199.39
 31
0.0
  0
LINE
  8
0
 10
126.7339
 20
-199.39
 30
0.0
 11
0
 21
-99.695
 31
0.0
  0
LINE
  8
0
 10
0
 20
-99.695
 30
0.0
 11
126.7339
 21
0
 31
0.0
  0
LINE
  8
0
 10
126.7339
 20
0
 30
0.0
 11
0
 21
-99.695
 31
0.0
  0
LINE
  8
0
 10
0
 20
-99.695
 30
0.0
 11
126.7339
 21
-199.39
 31
0.0
  0
LINE
  8
0
 10
126.7339
 20
-199.39
 30
0.0
 11
0
 21
-299.085
 31
0.0
  0
LINE
  8
0
 10
0
 20
-299.085
 30
0.0
 11
126.7339
 21
-398.78
 31
0.0
  0
LINE
  8
0
 10
126.7339
 20
-398.78
 30
0.0
 11
0
 21
-398.78
 31
0.0
  0
LINE
  8
0
 10
0
 20
-398.78
 30
0.0
 11
-126.7339
 21
-398.78
 31
0.0
  0
CIRCLE
  8
0
 10
1000
 20
7000
 30
0.0
 40
100
  0
CIRCLE
  8
0
 10
1500
 20
7000
 30
0.0
 40
100
  0
CIRCLE
  8
0
 10
2000
 20
7000
 30
0.0
 40
100
  0
CIRCLE
  8
0
 10
100
 20
100
 30
0.0
 40
125
  0
CIRCLE
  8
0
 10
200
 20
200
 30
0.0
 40
200
  0
CIRCLE
  8
0
 10
300
 20
300
 30
0.0
 40
200
  0
CIRCLE
  8
0
 10
350
 20
350
 30
0.0
 40
200
  0
CIRCLE
  8
0
 10
360
 20
360
 30
0.0
 40
200
  0
CIRCLE
  8
0
 10
370
 20
370
 30
0.0
 40
200
  0
ENDSEC
  0
EOF
