  0
SECTION
  2
ENTITIES
  0
LINE
  8
0
 10
431.6662
 20
20.09405
 30
0.0
 11
482.2173
 21
-30.45704
 31
0.0
  0
LINE
  8
0
 10
482.2173
 20
-30.45704
 30
0.0
 11
482.2173
 21
-296.0984
 31
0.0
  0
LINE
  8
0
 10
482.2173
 20
-296.0984
 30
0.0
 11
392.0495
 21
-386.2661
 31
0.0
  0
LINE
  8
0
 10
392.0495
 20
-386.2661
 30
0.0
 11
482.2173
 21
-296.0984
 31
0.0
  0
LINE
  8
0
 10
482.2173
 20
-296.0984
 30
0.0
 11
482.2173
 21
-30.45704
 31
0.0
  0
LINE
  8
0
 10
482.2173
 20
-30.45704
 30
0.0
 11
431.6662
 21
20.09405
 31
0.0
  0
LINE
  8
0
 10
431.6662
 20
20.09405
 30
0.0
 11
351.7098
 21
-59.86236
 31
0.0
  0
LINE
  8
0
 10
351.7098
 20
-59.86236
 30
0.0
 11
71.28117
 21
-59.86236
 31
0.0
  0
LINE
  8
0
 10
71.28117
 20
-59.86236
 30
0.0
 11
10.9109
 21
.5079023
 31
0.0
  0
LINE
  8
0
 10
10.9109
 20
.5079023
 30
0.0
 11
-18.82729
 21
-29.23027
 31
0.0
  0
LINE
  8
0
 10
-18.82729
 20
-29.23027
 30
0.0
 11
-18.82729
 21
-299.8902
 31
0.0
  0
LINE
  8
0
 10
-18.82729
 20
-299.8902
 30
0.0
 11
41.54298
 21
-360.2604
 31
0.0
  0
LINE
  8
0
 10
41.28384
 20
-360.4417
 30
0.0
 11
91.05945
 21
-310.666
 31
0.0
  0
LINE
  8
0
 10
91.05945
 20
-310.666
 30
0.0
 11
316.4496
 21
-310.666
 31
0.0
  0
LINE
  8
0
 10
316.4496
 20
-310.666
 30
0.0
 11
392.0495
 21
-386.2661
 31
0.0
  0
LINE
  8
0
 10
392.0495
 20
-386.2661
 30
0.0
 11
356.8416
 21
-421.4741
 31
0.0
  0
LINE
  8
0
 10
356.8416
 20
-421.4741
 30
0.0
 11
356.8416
 21
-646.864
 31
0.0
  0
LINE
  8
0
 10
356.8416
 20
-646.864
 30
0.0
 11
431.6662
 21
-729.2059
 31
0.0
  0
LINE
  8
0
 10
431.6662
 20
-729.2059
 30
0.0
 11
356.8416
 21
-646.864
 31
0.0
  0
LINE
  8
0
 10
356.8416
 20
-646.864
 30
0.0
 11
356.8416
 21
-421.4741
 31
0.0
  0
LINE
  8
0
 10
356.8416
 20
-421.4741
 30
0.0
 11
392.0495
 21
-386.2661
 31
0.0
  0
LINE
  8
0
 10
392.0495
 20
-386.2661
 30
0.0
 11
441.8253
 21
-436.0417
 31
0.0
  0
LINE
  8
0
 10
441.8253
 20
-436.0417
 30
0.0
 11
722.2539
 21
-436.0417
 31
0.0
  0
LINE
  8
0
 10
722.2539
 20
-436.0417
 30
0.0
 11
805.0367
 21
-360.2604
 31
0.0
  0
LINE
  8
0
 10
805.0367
 20
-360.2604
 30
0.0
 11
865.407
 21
-420.6308
 31
0.0
  0
LINE
  8
0
 10
865.407
 20
-420.6308
 30
0.0
 11
865.407
 21
-646.0208
 31
0.0
  0
LINE
  8
0
 10
865.407
 20
-646.0208
 30
0.0
 11
774.4047
 21
-746.3837
 31
0.0
  0
LINE
  8
0
 10
775.5268
 20
-746.3837
 30
0.0
 11
700.2225
 21
-687.4373
 31
0.0
  0
LINE
  8
0
 10
700.2225
 20
-687.4373
 30
0.0
 11
474.8327
 21
-687.4373
 31
0.0
  0
LINE
  8
0
 10
474.8327
 20
-687.4373
 30
0.0
 11
431.6662
 21
-729.2059
 31
0.0
  0
CIRCLE
  8
0
 10
1000
 20
7000
 30
0.0
 40
100
  0
CIRCLE
  8
0
 10
2500
 20
7000
 30
0.0
 40
100
  0
CIRCLE
  8
0
 10
4000
 20
7000
 30
0.0
 40
100
  0
CIRCLE
  8
0
 10
100
 20
100
 30
0.0
 40
125
  0
CIRCLE
  8
0
 10
200
 20
200
 30
0.0
 40
200
  0
CIRCLE
  8
0
 10
300
 20
300
 30
0.0
 40
200
  0
CIRCLE
  8
0
 10
350
 20
350
 30
0.0
 40
200
  0
CIRCLE
  8
0
 10
360
 20
360
 30
0.0
 40
200
  0
CIRCLE
  8
0
 10
370
 20
370
 30
0.0
 40
200
  0
ENDSEC
  0
EOF
