  0
SECTION
  2
ENTITIES
  0
LINE
  8
0
 10
0
 20
27.82047
 30
0.0
 11
0
 21
2.660863E-07
 31
0.0
  0
LINE
  8
0
 10
0
 20
2.660863E-07
 30
0.0
 11
157.827
 21
-302.3795
 31
0.0
  0
LINE
  8
0
 10
157.827
 20
-302.3795
 30
0.0
 11
0
 21
2.660863E-07
 31
0.0
  0
LINE
  8
0
 10
0
 20
2.660863E-07
 30
0.0
 11
157.827
 21
2.660863E-07
 31
0.0
  0
LINE
  8
0
 10
157.827
 20
2.660863E-07
 30
0.0
 11
315.6539
 21
2.660863E-07
 31
0.0
  0
LINE
  8
0
 10
315.6539
 20
2.660863E-07
 30
0.0
 11
157.827
 21
-302.3795
 31
0.0
  0
LINE
  8
0
 10
157.827
 20
-302.3795
 30
0.0
 11
473.4809
 21
-302.3795
 31
0.0
  0
LINE
  8
0
 10
473.4809
 20
-302.3795
 30
0.0
 11
315.6539
 21
2.660863E-07
 31
0.0
  0
LINE
  8
0
 10
315.6539
 20
2.660863E-07
 30
0.0
 11
631.3077
 21
2.660863E-07
 31
0.0
  0
LINE
  8
0
 10
631.3077
 20
2.660863E-07
 30
0.0
 11
473.4809
 21
-302.3795
 31
0.0
  0
LINE
  8
0
 10
473.4809
 20
-302.3795
 30
0.0
 11
789.1348
 21
-302.3795
 31
0.0
  0
LINE
  8
0
 10
789.1348
 20
-302.3795
 30
0.0
 11
631.3077
 21
2.660863E-07
 31
0.0
  0
LINE
  8
0
 10
631.3077
 20
2.660863E-07
 30
0.0
 11
946.9616
 21
2.660863E-07
 31
0.0
  0
LINE
  8
0
 10
946.9616
 20
2.660863E-07
 30
0.0
 11
789.1348
 21
-302.3795
 31
0.0
  0
LINE
  8
0
 10
789.1348
 20
-302.3795
 30
0.0
 11
1104.789
 21
-302.3795
 31
0.0
  0
LINE
  8
0
 10
1104.789
 20
-302.3795
 30
0.0
 11
946.9616
 21
2.660863E-07
 31
0.0
  0
LINE
  8
0
 10
946.9616
 20
2.660863E-07
 30
0.0
 11
1262.615
 21
2.660863E-07
 31
0.0
  0
LINE
  8
0
 10
1262.615
 20
2.660863E-07
 30
0.0
 11
1104.789
 21
-302.3795
 31
0.0
  0
LINE
  8
0
 10
1104.789
 20
-302.3795
 30
0.0
 11
1420.443
 21
-302.3795
 31
0.0
  0
LINE
  8
0
 10
1420.443
 20
-302.3795
 30
0.0
 11
1420.443
 21
-330.2
 31
0.0
  0
LINE
  8
0
 10
1420.443
 20
-330.2
 30
0.0
 11
1262.616
 21
-632.5795
 31
0.0
  0
LINE
  8
0
 10
1262.616
 20
-632.5795
 30
0.0
 11
1420.443
 21
-330.2
 31
0.0
  0
LINE
  8
0
 10
1420.443
 20
-330.2
 30
0.0
 11
1104.789
 21
-330.2
 31
0.0
  0
LINE
  8
0
 10
1104.789
 20
-330.2
 30
0.0
 11
1262.616
 21
-632.5795
 31
0.0
  0
LINE
  8
0
 10
1262.616
 20
-632.5795
 30
0.0
 11
946.9619
 21
-632.5795
 31
0.0
  0
LINE
  8
0
 10
946.9619
 20
-632.5795
 30
0.0
 11
1104.789
 21
-330.2
 31
0.0
  0
LINE
  8
0
 10
1104.789
 20
-330.2
 30
0.0
 11
789.1348
 21
-330.2
 31
0.0
  0
LINE
  8
0
 10
789.1348
 20
-330.2
 30
0.0
 11
946.9619
 21
-632.5795
 31
0.0
  0
LINE
  8
0
 10
946.9619
 20
-632.5795
 30
0.0
 11
631.308
 21
-632.5795
 31
0.0
  0
LINE
  8
0
 10
631.308
 20
-632.5795
 30
0.0
 11
789.1348
 21
-330.2
 31
0.0
  0
LINE
  8
0
 10
789.1348
 20
-330.2
 30
0.0
 11
473.4809
 21
-330.2
 31
0.0
  0
LINE
  8
0
 10
473.4809
 20
-330.2
 30
0.0
 11
631.308
 21
-632.5795
 31
0.0
  0
LINE
  8
0
 10
631.308
 20
-632.5795
 30
0.0
 11
315.654
 21
-632.5795
 31
0.0
  0
LINE
  8
0
 10
315.654
 20
-632.5795
 30
0.0
 11
473.4809
 21
-330.2
 31
0.0
  0
LINE
  8
0
 10
473.4809
 20
-330.2
 30
0.0
 11
157.827
 21
-330.2
 31
0.0
  0
LINE
  8
0
 10
157.827
 20
-330.2
 30
0.0
 11
315.654
 21
-632.5795
 31
0.0
  0
LINE
  8
0
 10
315.654
 20
-632.5795
 30
0.0
 11
1.066234E-04
 21
-632.5795
 31
0.0
  0
CIRCLE
  8
0
 10
1000
 20
7000
 30
0.0
 40
100
  0
CIRCLE
  8
0
 10
3500
 20
7000
 30
0.0
 40
100
  0
CIRCLE
  8
0
 10
6000
 20
7000
 30
0.0
 40
100
  0
CIRCLE
  8
0
 10
100
 20
100
 30
0.0
 40
128
  0
CIRCLE
  8
0
 10
200
 20
200
 30
0.0
 40
200
  0
CIRCLE
  8
0
 10
300
 20
300
 30
0.0
 40
200
  0
CIRCLE
  8
0
 10
350
 20
350
 30
0.0
 40
200
  0
CIRCLE
  8
0
 10
360
 20
360
 30
0.0
 40
200
  0
CIRCLE
  8
0
 10
370
 20
370
 30
0.0
 40
200
  0
ENDSEC
  0
EOF
