  0
SECTION
  2
ENTITIES
  0
LINE
  8
0
 10
260.9966
 20
226.2476
 30
0.0
 11
260.9966
 21
6.04495E-06
 31
0.0
  0
LINE
  8
0
 10
260.9966
 20
6.04495E-06
 30
0.0
 11
42.98546
 21
-112.8424
 31
0.0
  0
LINE
  8
0
 10
42.98546
 20
-112.8424
 30
0.0
 11
42.98546
 21
-339.09
 31
0.0
  0
LINE
  8
0
 10
42.98546
 20
-339.09
 30
0.0
 11
260.9966
 21
-451.9324
 31
0.0
  0
CIRCLE
  8
0
 10
1000
 20
6000
 30
0.0
 40
100
  0
CIRCLE
  8
0
 10
1500
 20
8000
 30
0.0
 40
100
  0
CIRCLE
  8
0
 10
2000
 20
6000
 30
0.0
 40
100
  0
CIRCLE
  8
0
 10
100
 20
100
 30
0.0
 40
125
  0
CIRCLE
  8
0
 10
200
 20
200
 30
0.0
 40
200
  0
CIRCLE
  8
0
 10
300
 20
300
 30
0.0
 40
200
  0
CIRCLE
  8
0
 10
350
 20
350
 30
0.0
 40
200
  0
CIRCLE
  8
0
 10
360
 20
360
 30
0.0
 40
200
  0
CIRCLE
  8
0
 10
370
 20
370
 30
0.0
 40
200
  0
ENDSEC
  0
EOF
