  0
SECTION
  2
ENTITIES
  0
LINE
  8
0
 10
0
 20
381
 30
0.0
 11
127
 21
254
 31
0.0
  0
LINE
  8
0
 10
127
 20
254
 30
0.0
 11
254
 21
127
 31
0.0
  0
LINE
  8
0
 10
254
 20
127
 30
0.0
 11
381
 21
254
 31
0.0
  0
LINE
  8
0
 10
381
 20
254
 30
0.0
 11
508
 21
381
 31
0.0
  0
LINE
  8
0
 10
508
 20
381
 30
0.0
 11
635
 21
254
 31
0.0
  0
LINE
  8
0
 10
635
 20
254
 30
0.0
 11
762
 21
127
 31
0.0
  0
LINE
  8
0
 10
762
 20
127
 30
0.0
 11
889
 21
254
 31
0.0
  0
LINE
  8
0
 10
889
 20
254
 30
0.0
 11
1016
 21
381
 31
0.0
  0
LINE
  8
0
 10
1016
 20
381
 30
0.0
 11
889
 21
254
 31
0.0
  0
LINE
  8
0
 10
889
 20
254
 30
0.0
 11
1016
 21
127
 31
0.0
  0
LINE
  8
0
 10
1016
 20
127
 30
0.0
 11
889
 21
254
 31
0.0
  0
LINE
  8
0
 10
889
 20
254
 30
0.0
 11
762
 21
381
 31
0.0
  0
LINE
  8
0
 10
762
 20
381
 30
0.0
 11
635
 21
254
 31
0.0
  0
LINE
  8
0
 10
635
 20
254
 30
0.0
 11
508
 21
127
 31
0.0
  0
LINE
  8
0
 10
508
 20
127
 30
0.0
 11
381
 21
254
 31
0.0
  0
LINE
  8
0
 10
381
 20
254
 30
0.0
 11
254
 21
381
 31
0.0
  0
LINE
  8
0
 10
254
 20
381
 30
0.0
 11
127
 21
254
 31
0.0
  0
LINE
  8
0
 10
127
 20
254
 30
0.0
 11
0
 21
127
 31
0.0
  0
LINE
  8
0
 10
0
 20
127
 30
0.0
 11
127
 21
0
 31
0.0
  0
LINE
  8
0
 10
127
 20
0
 30
0.0
 11
254
 21
-127
 31
0.0
  0
LINE
  8
0
 10
254
 20
-127
 30
0.0
 11
381
 21
0
 31
0.0
  0
LINE
  8
0
 10
381
 20
0
 30
0.0
 11
508
 21
127
 31
0.0
  0
LINE
  8
0
 10
508
 20
127
 30
0.0
 11
635
 21
0
 31
0.0
  0
LINE
  8
0
 10
635
 20
0
 30
0.0
 11
762
 21
-127
 31
0.0
  0
LINE
  8
0
 10
762
 20
-127
 30
0.0
 11
889
 21
0
 31
0.0
  0
LINE
  8
0
 10
889
 20
0
 30
0.0
 11
1016
 21
127
 31
0.0
  0
LINE
  8
0
 10
1016
 20
127
 30
0.0
 11
889
 21
0
 31
0.0
  0
LINE
  8
0
 10
889
 20
0
 30
0.0
 11
1016
 21
-127
 31
0.0
  0
LINE
  8
0
 10
1016
 20
-127
 30
0.0
 11
889
 21
0
 31
0.0
  0
LINE
  8
0
 10
889
 20
0
 30
0.0
 11
762
 21
127
 31
0.0
  0
LINE
  8
0
 10
762
 20
127
 30
0.0
 11
635
 21
0
 31
0.0
  0
LINE
  8
0
 10
635
 20
0
 30
0.0
 11
508
 21
-127
 31
0.0
  0
LINE
  8
0
 10
508
 20
-127
 30
0.0
 11
381
 21
0
 31
0.0
  0
LINE
  8
0
 10
381
 20
0
 30
0.0
 11
254
 21
127
 31
0.0
  0
LINE
  8
0
 10
254
 20
127
 30
0.0
 11
127
 21
0
 31
0.0
  0
LINE
  8
0
 10
127
 20
0
 30
0.0
 11
0
 21
-127
 31
0.0
  0
LINE
  8
0
 10
0
 20
-127
 30
0.0
 11
127
 21
-254
 31
0.0
  0
LINE
  8
0
 10
127
 20
-254
 30
0.0
 11
254
 21
-381
 31
0.0
  0
LINE
  8
0
 10
254
 20
-381
 30
0.0
 11
381
 21
-254
 31
0.0
  0
LINE
  8
0
 10
381
 20
-254
 30
0.0
 11
508
 21
-127
 31
0.0
  0
LINE
  8
0
 10
508
 20
-127
 30
0.0
 11
635
 21
-254
 31
0.0
  0
LINE
  8
0
 10
635
 20
-254
 30
0.0
 11
762
 21
-381
 31
0.0
  0
LINE
  8
0
 10
762
 20
-381
 30
0.0
 11
889
 21
-254
 31
0.0
  0
LINE
  8
0
 10
889
 20
-254
 30
0.0
 11
1016
 21
-127
 31
0.0
  0
LINE
  8
0
 10
1016
 20
-127
 30
0.0
 11
889
 21
-254
 31
0.0
  0
LINE
  8
0
 10
889
 20
-254
 30
0.0
 11
1016
 21
-381
 31
0.0
  0
LINE
  8
0
 10
1016
 20
-381
 30
0.0
 11
889
 21
-254
 31
0.0
  0
LINE
  8
0
 10
889
 20
-254
 30
0.0
 11
762
 21
-127
 31
0.0
  0
LINE
  8
0
 10
762
 20
-127
 30
0.0
 11
635
 21
-254
 31
0.0
  0
LINE
  8
0
 10
635
 20
-254
 30
0.0
 11
508
 21
-381
 31
0.0
  0
LINE
  8
0
 10
508
 20
-381
 30
0.0
 11
381
 21
-254
 31
0.0
  0
LINE
  8
0
 10
381
 20
-254
 30
0.0
 11
254
 21
-127
 31
0.0
  0
LINE
  8
0
 10
254
 20
-127
 30
0.0
 11
127
 21
-254
 31
0.0
  0
LINE
  8
0
 10
127
 20
-254
 30
0.0
 11
0
 21
-381
 31
0.0
  0
LINE
  8
0
 10
0
 20
-381
 30
0.0
 11
127
 21
-508
 31
0.0
  0
LINE
  8
0
 10
127
 20
-508
 30
0.0
 11
254
 21
-635
 31
0.0
  0
LINE
  8
0
 10
254
 20
-635
 30
0.0
 11
381
 21
-508
 31
0.0
  0
LINE
  8
0
 10
381
 20
-508
 30
0.0
 11
508
 21
-381
 31
0.0
  0
LINE
  8
0
 10
508
 20
-381
 30
0.0
 11
635
 21
-508
 31
0.0
  0
LINE
  8
0
 10
635
 20
-508
 30
0.0
 11
762
 21
-635
 31
0.0
  0
LINE
  8
0
 10
762
 20
-635
 30
0.0
 11
889
 21
-508
 31
0.0
  0
LINE
  8
0
 10
889
 20
-508
 30
0.0
 11
1016
 21
-381
 31
0.0
  0
LINE
  8
0
 10
1016
 20
-381
 30
0.0
 11
889
 21
-508
 31
0.0
  0
LINE
  8
0
 10
889
 20
-508
 30
0.0
 11
1016
 21
-635
 31
0.0
  0
LINE
  8
0
 10
1016
 20
-635
 30
0.0
 11
889
 21
-508
 31
0.0
  0
LINE
  8
0
 10
889
 20
-508
 30
0.0
 11
762
 21
-381
 31
0.0
  0
LINE
  8
0
 10
762
 20
-381
 30
0.0
 11
635
 21
-508
 31
0.0
  0
LINE
  8
0
 10
635
 20
-508
 30
0.0
 11
508
 21
-635
 31
0.0
  0
LINE
  8
0
 10
508
 20
-635
 30
0.0
 11
381
 21
-508
 31
0.0
  0
LINE
  8
0
 10
381
 20
-508
 30
0.0
 11
254
 21
-381
 31
0.0
  0
LINE
  8
0
 10
254
 20
-381
 30
0.0
 11
127
 21
-508
 31
0.0
  0
LINE
  8
0
 10
127
 20
-508
 30
0.0
 11
0
 21
-635
 31
0.0
  0
LINE
  8
0
 10
0
 20
-635
 30
0.0
 11
127
 21
-762
 31
0.0
  0
LINE
  8
0
 10
127
 20
-762
 30
0.0
 11
254
 21
-889
 31
0.0
  0
LINE
  8
0
 10
254
 20
-889
 30
0.0
 11
381
 21
-762
 31
0.0
  0
LINE
  8
0
 10
381
 20
-762
 30
0.0
 11
508
 21
-635
 31
0.0
  0
LINE
  8
0
 10
508
 20
-635
 30
0.0
 11
635
 21
-762
 31
0.0
  0
LINE
  8
0
 10
635
 20
-762
 30
0.0
 11
762
 21
-889
 31
0.0
  0
LINE
  8
0
 10
762
 20
-889
 30
0.0
 11
889
 21
-762
 31
0.0
  0
LINE
  8
0
 10
889
 20
-762
 30
0.0
 11
1016
 21
-635
 31
0.0
  0
LINE
  8
0
 10
1016
 20
-635
 30
0.0
 11
889
 21
-762
 31
0.0
  0
LINE
  8
0
 10
889
 20
-762
 30
0.0
 11
1016
 21
-889
 31
0.0
  0
LINE
  8
0
 10
1016
 20
-889
 30
0.0
 11
889
 21
-762
 31
0.0
  0
LINE
  8
0
 10
889
 20
-762
 30
0.0
 11
762
 21
-635
 31
0.0
  0
LINE
  8
0
 10
762
 20
-635
 30
0.0
 11
635
 21
-762
 31
0.0
  0
LINE
  8
0
 10
635
 20
-762
 30
0.0
 11
508
 21
-889
 31
0.0
  0
LINE
  8
0
 10
508
 20
-889
 30
0.0
 11
381
 21
-762
 31
0.0
  0
LINE
  8
0
 10
381
 20
-762
 30
0.0
 11
254
 21
-635
 31
0.0
  0
LINE
  8
0
 10
254
 20
-635
 30
0.0
 11
127
 21
-762
 31
0.0
  0
LINE
  8
0
 10
127
 20
-762
 30
0.0
 11
0
 21
-889
 31
0.0
  0
LINE
  8
0
 10
0
 20
-889
 30
0.0
 11
127
 21
-1016
 31
0.0
  0
LINE
  8
0
 10
127
 20
-1016
 30
0.0
 11
254
 21
-1143
 31
0.0
  0
LINE
  8
0
 10
254
 20
-1143
 30
0.0
 11
381
 21
-1016
 31
0.0
  0
LINE
  8
0
 10
381
 20
-1016
 30
0.0
 11
508
 21
-889
 31
0.0
  0
LINE
  8
0
 10
508
 20
-889
 30
0.0
 11
635
 21
-1016
 31
0.0
  0
LINE
  8
0
 10
635
 20
-1016
 30
0.0
 11
762
 21
-1143
 31
0.0
  0
LINE
  8
0
 10
762
 20
-1143
 30
0.0
 11
889
 21
-1016
 31
0.0
  0
LINE
  8
0
 10
889
 20
-1016
 30
0.0
 11
1016
 21
-889
 31
0.0
  0
LINE
  8
0
 10
1016
 20
-889
 30
0.0
 11
889
 21
-1016
 31
0.0
  0
LINE
  8
0
 10
889
 20
-1016
 30
0.0
 11
1016
 21
-1143
 31
0.0
  0
LINE
  8
0
 10
1016
 20
-1143
 30
0.0
 11
889
 21
-1016
 31
0.0
  0
LINE
  8
0
 10
889
 20
-1016
 30
0.0
 11
762
 21
-889
 31
0.0
  0
LINE
  8
0
 10
762
 20
-889
 30
0.0
 11
635
 21
-1016
 31
0.0
  0
LINE
  8
0
 10
635
 20
-1016
 30
0.0
 11
508
 21
-1143
 31
0.0
  0
LINE
  8
0
 10
508
 20
-1143
 30
0.0
 11
381
 21
-1016
 31
0.0
  0
LINE
  8
0
 10
381
 20
-1016
 30
0.0
 11
254
 21
-889
 31
0.0
  0
LINE
  8
0
 10
254
 20
-889
 30
0.0
 11
127
 21
-1016
 31
0.0
  0
LINE
  8
0
 10
127
 20
-1016
 30
0.0
 11
0
 21
-1143
 31
0.0
  0
LINE
  8
0
 10
0
 20
-1143
 30
0.0
 11
127
 21
-1270
 31
0.0
  0
LINE
  8
0
 10
127
 20
-1270
 30
0.0
 11
254
 21
-1397
 31
0.0
  0
LINE
  8
0
 10
254
 20
-1397
 30
0.0
 11
381
 21
-1270
 31
0.0
  0
LINE
  8
0
 10
381
 20
-1270
 30
0.0
 11
508
 21
-1143
 31
0.0
  0
LINE
  8
0
 10
508
 20
-1143
 30
0.0
 11
635
 21
-1270
 31
0.0
  0
LINE
  8
0
 10
635
 20
-1270
 30
0.0
 11
762
 21
-1397
 31
0.0
  0
LINE
  8
0
 10
762
 20
-1397
 30
0.0
 11
889
 21
-1270
 31
0.0
  0
LINE
  8
0
 10
889
 20
-1270
 30
0.0
 11
1016
 21
-1143
 31
0.0
  0
LINE
  8
0
 10
1016
 20
-1143
 30
0.0
 11
889
 21
-1270
 31
0.0
  0
LINE
  8
0
 10
889
 20
-1270
 30
0.0
 11
1016
 21
-1397
 31
0.0
  0
LINE
  8
0
 10
1016
 20
-1397
 30
0.0
 11
889
 21
-1270
 31
0.0
  0
LINE
  8
0
 10
889
 20
-1270
 30
0.0
 11
762
 21
-1143
 31
0.0
  0
LINE
  8
0
 10
762
 20
-1143
 30
0.0
 11
635
 21
-1270
 31
0.0
  0
LINE
  8
0
 10
635
 20
-1270
 30
0.0
 11
508
 21
-1397
 31
0.0
  0
LINE
  8
0
 10
508
 20
-1397
 30
0.0
 11
381
 21
-1270
 31
0.0
  0
LINE
  8
0
 10
381
 20
-1270
 30
0.0
 11
254
 21
-1143
 31
0.0
  0
LINE
  8
0
 10
254
 20
-1143
 30
0.0
 11
127
 21
-1270
 31
0.0
  0
LINE
  8
0
 10
127
 20
-1270
 30
0.0
 11
0
 21
-1397
 31
0.0
  0
LINE
  8
0
 10
0
 20
-1397
 30
0.0
 11
127
 21
-1524
 31
0.0
  0
LINE
  8
0
 10
127
 20
-1524
 30
0.0
 11
254
 21
-1651
 31
0.0
  0
LINE
  8
0
 10
254
 20
-1651
 30
0.0
 11
381
 21
-1524
 31
0.0
  0
LINE
  8
0
 10
381
 20
-1524
 30
0.0
 11
508
 21
-1397
 31
0.0
  0
LINE
  8
0
 10
508
 20
-1397
 30
0.0
 11
635
 21
-1524
 31
0.0
  0
LINE
  8
0
 10
635
 20
-1524
 30
0.0
 11
762
 21
-1651
 31
0.0
  0
LINE
  8
0
 10
762
 20
-1651
 30
0.0
 11
889
 21
-1524
 31
0.0
  0
LINE
  8
0
 10
889
 20
-1524
 30
0.0
 11
1016
 21
-1397
 31
0.0
  0
LINE
  8
0
 10
1016
 20
-1397
 30
0.0
 11
889
 21
-1524
 31
0.0
  0
LINE
  8
0
 10
889
 20
-1524
 30
0.0
 11
1016
 21
-1651
 31
0.0
  0
LINE
  8
0
 10
1016
 20
-1651
 30
0.0
 11
889
 21
-1524
 31
0.0
  0
LINE
  8
0
 10
889
 20
-1524
 30
0.0
 11
762
 21
-1397
 31
0.0
  0
LINE
  8
0
 10
762
 20
-1397
 30
0.0
 11
635
 21
-1524
 31
0.0
  0
LINE
  8
0
 10
635
 20
-1524
 30
0.0
 11
508
 21
-1651
 31
0.0
  0
LINE
  8
0
 10
508
 20
-1651
 30
0.0
 11
381
 21
-1524
 31
0.0
  0
LINE
  8
0
 10
381
 20
-1524
 30
0.0
 11
254
 21
-1397
 31
0.0
  0
LINE
  8
0
 10
254
 20
-1397
 30
0.0
 11
127
 21
-1524
 31
0.0
  0
LINE
  8
0
 10
127
 20
-1524
 30
0.0
 11
0
 21
-1651
 31
0.0
  0
LINE
  8
0
 10
0
 20
-1651
 30
0.0
 11
127
 21
-1778
 31
0.0
  0
LINE
  8
0
 10
127
 20
-1778
 30
0.0
 11
254
 21
-1905
 31
0.0
  0
LINE
  8
0
 10
254
 20
-1905
 30
0.0
 11
381
 21
-1778
 31
0.0
  0
LINE
  8
0
 10
381
 20
-1778
 30
0.0
 11
508
 21
-1651
 31
0.0
  0
LINE
  8
0
 10
508
 20
-1651
 30
0.0
 11
635
 21
-1778
 31
0.0
  0
LINE
  8
0
 10
635
 20
-1778
 30
0.0
 11
762
 21
-1905
 31
0.0
  0
LINE
  8
0
 10
762
 20
-1905
 30
0.0
 11
889
 21
-1778
 31
0.0
  0
LINE
  8
0
 10
889
 20
-1778
 30
0.0
 11
1016
 21
-1651
 31
0.0
  0
LINE
  8
0
 10
1016
 20
-1651
 30
0.0
 11
889
 21
-1778
 31
0.0
  0
LINE
  8
0
 10
889
 20
-1778
 30
0.0
 11
1016
 21
-1905
 31
0.0
  0
LINE
  8
0
 10
1016
 20
-1905
 30
0.0
 11
889
 21
-1778
 31
0.0
  0
LINE
  8
0
 10
889
 20
-1778
 30
0.0
 11
762
 21
-1651
 31
0.0
  0
LINE
  8
0
 10
762
 20
-1651
 30
0.0
 11
635
 21
-1778
 31
0.0
  0
LINE
  8
0
 10
635
 20
-1778
 30
0.0
 11
508
 21
-1905
 31
0.0
  0
LINE
  8
0
 10
508
 20
-1905
 30
0.0
 11
381
 21
-1778
 31
0.0
  0
LINE
  8
0
 10
381
 20
-1778
 30
0.0
 11
254
 21
-1651
 31
0.0
  0
LINE
  8
0
 10
254
 20
-1651
 30
0.0
 11
127
 21
-1778
 31
0.0
  0
LINE
  8
0
 10
127
 20
-1778
 30
0.0
 11
0
 21
-1905
 31
0.0
  0
LINE
  8
0
 10
0
 20
-1905
 30
0.0
 11
127
 21
-2032
 31
0.0
  0
LINE
  8
0
 10
127
 20
-2032
 30
0.0
 11
254
 21
-2159
 31
0.0
  0
LINE
  8
0
 10
254
 20
-2159
 30
0.0
 11
381
 21
-2032
 31
0.0
  0
LINE
  8
0
 10
381
 20
-2032
 30
0.0
 11
508
 21
-1905
 31
0.0
  0
LINE
  8
0
 10
508
 20
-1905
 30
0.0
 11
635
 21
-2032
 31
0.0
  0
LINE
  8
0
 10
635
 20
-2032
 30
0.0
 11
762
 21
-2159
 31
0.0
  0
LINE
  8
0
 10
762
 20
-2159
 30
0.0
 11
889
 21
-2032
 31
0.0
  0
LINE
  8
0
 10
889
 20
-2032
 30
0.0
 11
1016
 21
-1905
 31
0.0
  0
LINE
  8
0
 10
1016
 20
-1905
 30
0.0
 11
889
 21
-2032
 31
0.0
  0
LINE
  8
0
 10
889
 20
-2032
 30
0.0
 11
1016
 21
-2159
 31
0.0
  0
LINE
  8
0
 10
1016
 20
-2159
 30
0.0
 11
889
 21
-2032
 31
0.0
  0
LINE
  8
0
 10
889
 20
-2032
 30
0.0
 11
762
 21
-1905
 31
0.0
  0
LINE
  8
0
 10
762
 20
-1905
 30
0.0
 11
635
 21
-2032
 31
0.0
  0
LINE
  8
0
 10
635
 20
-2032
 30
0.0
 11
508
 21
-2159
 31
0.0
  0
LINE
  8
0
 10
508
 20
-2159
 30
0.0
 11
381
 21
-2032
 31
0.0
  0
LINE
  8
0
 10
381
 20
-2032
 30
0.0
 11
254
 21
-1905
 31
0.0
  0
LINE
  8
0
 10
254
 20
-1905
 30
0.0
 11
127
 21
-2032
 31
0.0
  0
LINE
  8
0
 10
127
 20
-2032
 30
0.0
 11
0
 21
-2159
 31
0.0
  0
LINE
  8
0
 10
0
 20
-2159
 30
0.0
 11
127
 21
-2286
 31
0.0
  0
LINE
  8
0
 10
127
 20
-2286
 30
0.0
 11
254
 21
-2413
 31
0.0
  0
LINE
  8
0
 10
254
 20
-2413
 30
0.0
 11
381
 21
-2286
 31
0.0
  0
LINE
  8
0
 10
381
 20
-2286
 30
0.0
 11
508
 21
-2159
 31
0.0
  0
LINE
  8
0
 10
508
 20
-2159
 30
0.0
 11
635
 21
-2286
 31
0.0
  0
LINE
  8
0
 10
635
 20
-2286
 30
0.0
 11
762
 21
-2413
 31
0.0
  0
LINE
  8
0
 10
762
 20
-2413
 30
0.0
 11
889
 21
-2286
 31
0.0
  0
LINE
  8
0
 10
889
 20
-2286
 30
0.0
 11
1016
 21
-2159
 31
0.0
  0
LINE
  8
0
 10
1016
 20
-2159
 30
0.0
 11
889
 21
-2286
 31
0.0
  0
LINE
  8
0
 10
889
 20
-2286
 30
0.0
 11
1016
 21
-2413
 31
0.0
  0
LINE
  8
0
 10
1016
 20
-2413
 30
0.0
 11
889
 21
-2286
 31
0.0
  0
LINE
  8
0
 10
889
 20
-2286
 30
0.0
 11
762
 21
-2159
 31
0.0
  0
LINE
  8
0
 10
762
 20
-2159
 30
0.0
 11
635
 21
-2286
 31
0.0
  0
LINE
  8
0
 10
635
 20
-2286
 30
0.0
 11
508
 21
-2413
 31
0.0
  0
LINE
  8
0
 10
508
 20
-2413
 30
0.0
 11
381
 21
-2286
 31
0.0
  0
LINE
  8
0
 10
381
 20
-2286
 30
0.0
 11
254
 21
-2159
 31
0.0
  0
LINE
  8
0
 10
254
 20
-2159
 30
0.0
 11
127
 21
-2286
 31
0.0
  0
LINE
  8
0
 10
127
 20
-2286
 30
0.0
 11
0
 21
-2413
 31
0.0
  0
LINE
  8
0
 10
0
 20
-2413
 30
0.0
 11
254
 21
-2667
 31
0.0
  0
LINE
  8
0
 10
254
 20
-2667
 30
0.0
 11
508
 21
-2413
 31
0.0
  0
LINE
  8
0
 10
508
 20
-2413
 30
0.0
 11
762
 21
-2667
 31
0.0
  0
LINE
  8
0
 10
762
 20
-2667
 30
0.0
 11
1016
 21
-2413
 31
0.0
  0
LINE
  8
0
 10
1016
 20
-2413
 30
0.0
 11
762
 21
-2667
 31
0.0
  0
LINE
  8
0
 10
762
 20
-2667
 30
0.0
 11
1016
 21
-2921
 31
0.0
  0
LINE
  8
0
 10
1016
 20
-2921
 30
0.0
 11
762
 21
-2667
 31
0.0
  0
LINE
  8
0
 10
762
 20
-2667
 30
0.0
 11
508
 21
-2921
 31
0.0
  0
LINE
  8
0
 10
508
 20
-2921
 30
0.0
 11
254
 21
-2667
 31
0.0
  0
LINE
  8
0
 10
254
 20
-2667
 30
0.0
 11
0
 21
-2921
 31
0.0
  0
LINE
  8
0
 10
0
 20
-2921
 30
0.0
 11
254
 21
-3175
 31
0.0
  0
LINE
  8
0
 10
254
 20
-3175
 30
0.0
 11
508
 21
-2921
 31
0.0
  0
LINE
  8
0
 10
508
 20
-2921
 30
0.0
 11
762
 21
-3175
 31
0.0
  0
LINE
  8
0
 10
762
 20
-3175
 30
0.0
 11
1016
 21
-2921
 31
0.0
  0
LINE
  8
0
 10
1016
 20
-2921
 30
0.0
 11
762
 21
-3175
 31
0.0
  0
LINE
  8
0
 10
762
 20
-3175
 30
0.0
 11
1016
 21
-3429
 31
0.0
  0
LINE
  8
0
 10
1016
 20
-3429
 30
0.0
 11
762
 21
-3175
 31
0.0
  0
LINE
  8
0
 10
762
 20
-3175
 30
0.0
 11
508
 21
-3429
 31
0.0
  0
LINE
  8
0
 10
508
 20
-3429
 30
0.0
 11
254
 21
-3175
 31
0.0
  0
LINE
  8
0
 10
254
 20
-3175
 30
0.0
 11
0
 21
-3429
 31
0.0
  0
LINE
  8
0
 10
0
 20
-3429
 30
0.0
 11
254
 21
-3683
 31
0.0
  0
LINE
  8
0
 10
254
 20
-3683
 30
0.0
 11
508
 21
-3429
 31
0.0
  0
LINE
  8
0
 10
508
 20
-3429
 30
0.0
 11
762
 21
-3683
 31
0.0
  0
LINE
  8
0
 10
762
 20
-3683
 30
0.0
 11
1016
 21
-3429
 31
0.0
  0
LINE
  8
0
 10
1016
 20
-3429
 30
0.0
 11
762
 21
-3683
 31
0.0
  0
LINE
  8
0
 10
762
 20
-3683
 30
0.0
 11
1016
 21
-3937
 31
0.0
  0
LINE
  8
0
 10
1016
 20
-3937
 30
0.0
 11
762
 21
-3683
 31
0.0
  0
LINE
  8
0
 10
762
 20
-3683
 30
0.0
 11
508
 21
-3937
 31
0.0
  0
LINE
  8
0
 10
508
 20
-3937
 30
0.0
 11
254
 21
-3683
 31
0.0
  0
LINE
  8
0
 10
254
 20
-3683
 30
0.0
 11
0
 21
-3937
 31
0.0
  0
LINE
  8
0
 10
0
 20
-3937
 30
0.0
 11
254
 21
-4191
 31
0.0
  0
LINE
  8
0
 10
254
 20
-4191
 30
0.0
 11
508
 21
-3937
 31
0.0
  0
LINE
  8
0
 10
508
 20
-3937
 30
0.0
 11
762
 21
-4191
 31
0.0
  0
LINE
  8
0
 10
762
 20
-4191
 30
0.0
 11
1016
 21
-3937
 31
0.0
  0
LINE
  8
0
 10
1016
 20
-3937
 30
0.0
 11
762
 21
-4191
 31
0.0
  0
LINE
  8
0
 10
762
 20
-4191
 30
0.0
 11
1016
 21
-4445
 31
0.0
  0
LINE
  8
0
 10
1016
 20
-4445
 30
0.0
 11
762
 21
-4191
 31
0.0
  0
LINE
  8
0
 10
762
 20
-4191
 30
0.0
 11
508
 21
-4445
 31
0.0
  0
LINE
  8
0
 10
508
 20
-4445
 30
0.0
 11
254
 21
-4191
 31
0.0
  0
LINE
  8
0
 10
254
 20
-4191
 30
0.0
 11
0
 21
-4445
 31
0.0
  0
LINE
  8
0
 10
0
 20
-4445
 30
0.0
 11
508
 21
-4953
 31
0.0
  0
LINE
  8
0
 10
508
 20
-4953
 30
0.0
 11
1016
 21
-4445
 31
0.0
  0
LINE
  8
0
 10
1016
 20
-4445
 30
0.0
 11
508
 21
-4953
 31
0.0
  0
LINE
  8
0
 10
508
 20
-4953
 30
0.0
 11
1016
 21
-5461
 31
0.0
  0
LINE
  8
0
 10
1016
 20
-5461
 30
0.0
 11
508
 21
-4953
 31
0.0
  0
LINE
  8
0
 10
508
 20
-4953
 30
0.0
 11
0
 21
-5461
 31
0.0
  0
LINE
  8
0
 10
0
 20
-5461
 30
0.0
 11
508
 21
-5969
 31
0.0
  0
LINE
  8
0
 10
508
 20
-5969
 30
0.0
 11
1016
 21
-5461
 31
0.0
  0
LINE
  8
0
 10
1016
 20
-5461
 30
0.0
 11
508
 21
-5969
 31
0.0
  0
LINE
  8
0
 10
508
 20
-5969
 30
0.0
 11
1016
 21
-6477
 31
0.0
  0
LINE
  8
0
 10
1016
 20
-6477
 30
0.0
 11
508
 21
-5969
 31
0.0
  0
LINE
  8
0
 10
508
 20
-5969
 30
0.0
 11
0
 21
-6477
 31
0.0
  0
LINE
  8
0
 10
0
 20
-6477
 30
0.0
 11
508
 21
-6985
 31
0.0
  0
LINE
  8
0
 10
508
 20
-6985
 30
0.0
 11
1016
 21
-6477
 31
0.0
  0
LINE
  8
0
 10
1016
 20
-6477
 30
0.0
 11
508
 21
-6985
 31
0.0
  0
LINE
  8
0
 10
508
 20
-6985
 30
0.0
 11
1016
 21
-7493
 31
0.0
  0
LINE
  8
0
 10
1016
 20
-7493
 30
0.0
 11
508
 21
-6985
 31
0.0
  0
LINE
  8
0
 10
508
 20
-6985
 30
0.0
 11
0
 21
-7493
 31
0.0
  0
LINE
  8
0
 10
0
 20
-7493
 30
0.0
 11
508
 21
-8001
 31
0.0
  0
LINE
  8
0
 10
508
 20
-8001
 30
0.0
 11
1016
 21
-7493
 31
0.0
  0
LINE
  8
0
 10
1016
 20
-7493
 30
0.0
 11
508
 21
-8001
 31
0.0
  0
LINE
  8
0
 10
508
 20
-8001
 30
0.0
 11
1016
 21
-8509
 31
0.0
  0
LINE
  8
0
 10
1016
 20
-8509
 30
0.0
 11
508
 21
-8001
 31
0.0
  0
LINE
  8
0
 10
508
 20
-8001
 30
0.0
 11
0
 21
-8509
 31
0.0
  0
LINE
  8
0
 10
0
 20
-8509
 30
0.0
 11
508
 21
-9017
 31
0.0
  0
LINE
  8
0
 10
508
 20
-9017
 30
0.0
 11
1016
 21
-8509
 31
0.0
  0
LINE
  8
0
 10
1016
 20
-8509
 30
0.0
 11
508
 21
-9017
 31
0.0
  0
LINE
  8
0
 10
508
 20
-9017
 30
0.0
 11
1016
 21
-9525
 31
0.0
  0
LINE
  8
0
 10
1016
 20
-9525
 30
0.0
 11
508
 21
-9017
 31
0.0
  0
LINE
  8
0
 10
508
 20
-9017
 30
0.0
 11
0
 21
-9525
 31
0.0
  0
CIRCLE
  8
0
 10
1000
 20
7000
 30
0.0
 40
100
  0
CIRCLE
  8
0
 10
3000
 20
7000
 30
0.0
 40
100
  0
CIRCLE
  8
0
 10
100
 20
100
 30
0.0
 40
125
  0
CIRCLE
  8
0
 10
200
 20
200
 30
0.0
 40
200
  0
CIRCLE
  8
0
 10
300
 20
300
 30
0.0
 40
200
  0
CIRCLE
  8
0
 10
350
 20
350
 30
0.0
 40
200
  0
CIRCLE
  8
0
 10
360
 20
360
 30
0.0
 40
200
  0
CIRCLE
  8
0
 10
370
 20
370
 30
0.0
 40
200
  0
ENDSEC
  0
EOF
