  0
SECTION
  2
ENTITIES
  0
LINE
  8
0
 10
381
 20
762
 30
0.0
 11
358.4
 21
739.3566
 31
0.0
  0
LINE
  8
0
 10
358.4
 20
739.3566
 30
0.0
 11
0
 21
381
 31
0.0
  0
LINE
  8
0
 10
0
 20
381
 30
0.0
 11
22.59998
 21
358.3565
 31
0.0
  0
LINE
  8
0
 10
22.59998
 20
358.3565
 30
0.0
 11
381
 21
716.7131
 31
0.0
  0
LINE
  8
0
 10
381
 20
716.7131
 30
0.0
 11
739.4
 21
358.3565
 31
0.0
  0
LINE
  8
0
 10
739.4
 20
358.3565
 30
0.0
 11
381
 21
716.7131
 31
0.0
  0
LINE
  8
0
 10
381
 20
716.7131
 30
0.0
 11
403.6
 21
739.3566
 31
0.0
  0
LINE
  8
0
 10
403.6
 20
739.3566
 30
0.0
 11
762
 21
381
 31
0.0
  0
LINE
  8
0
 10
762
 20
381
 30
0.0
 11
739.4
 21
358.3565
 31
0.0
  0
LINE
  8
0
 10
739.4
 20
358.3565
 30
0.0
 11
381
 21
0
 31
0.0
  0
LINE
  8
0
 10
381
 20
0
 30
0.0
 11
739.4
 21
358.3565
 31
0.0
  0
LINE
  8
0
 10
739.4
 20
358.3565
 30
0.0
 11
762
 21
335.7131
 31
0.0
  0
LINE
  8
0
 10
762
 20
335.7131
 30
0.0
 11
403.6
 21
-22.64349
 31
0.0
  0
LINE
  8
0
 10
403.6
 20
-22.64343
 30
0.0
 11
381
 21
0
 31
0.0
  0
LINE
  8
0
 10
381
 20
0
 30
0.0
 11
22.59998
 21
358.3565
 31
0.0
  0
LINE
  8
0
 10
22.59998
 20
358.3565
 30
0.0
 11
0
 21
335.7131
 31
0.0
  0
LINE
  8
0
 10
0
 20
335.7131
 30
0.0
 11
358.4
 21
-22.64349
 31
0.0
  0
LINE
  8
0
 10
358.4
 20
-22.64343
 30
0.0
 11
381
 21
0
 31
0.0
  0
CIRCLE
  8
0
 10
1000
 20
7000
 30
0.0
 40
100
  0
CIRCLE
  8
0
 10
2500
 20
7000
 30
0.0
 40
100
  0
CIRCLE
  8
0
 10
4000
 20
7000
 30
0.0
 40
100
  0
CIRCLE
  8
0
 10
100
 20
100
 30
0.0
 40
125
  0
CIRCLE
  8
0
 10
200
 20
200
 30
0.0
 40
200
  0
CIRCLE
  8
0
 10
300
 20
300
 30
0.0
 40
200
  0
CIRCLE
  8
0
 10
350
 20
350
 30
0.0
 40
200
  0
CIRCLE
  8
0
 10
360
 20
360
 30
0.0
 40
200
  0
CIRCLE
  8
0
 10
370
 20
370
 30
0.0
 40
200
  0
ENDSEC
  0
EOF
