  0
SECTION
  2
ENTITIES
  0
ARC
  8
0
 10
52.89902
 20
189.9459
 30
0.0
 40
204.2689
 50
291.5832
 51
354.0892
  0
ARC
  8
0
 10
203.1785
 20
-189.9474
 30
0.0
 40
204.2689
 50
111.5829
 51
174.0889
  0
ARC
  8
0
 10
203.1785
 20
-147.8739
 30
0.0
 40
204.2689
 50
185.911
 51
248.417
  0
ARC
  8
0
 10
52.89764
 20
-527.7665
 30
0.0
 40
204.2689
 50
5.910861
 51
68.41689
  0
CIRCLE
  8
0
 10
1000
 20
6000
 30
0.0
 40
100
  0
CIRCLE
  8
0
 10
1500
 20
8000
 30
0.0
 40
100
  0
CIRCLE
  8
0
 10
2000
 20
6000
 30
0.0
 40
100
  0
CIRCLE
  8
0
 10
100
 20
100
 30
0.0
 40
125
  0
CIRCLE
  8
0
 10
200
 20
200
 30
0.0
 40
200
  0
CIRCLE
  8
0
 10
300
 20
300
 30
0.0
 40
200
  0
CIRCLE
  8
0
 10
350
 20
350
 30
0.0
 40
200
  0
CIRCLE
  8
0
 10
360
 20
360
 30
0.0
 40
200
  0
CIRCLE
  8
0
 10
370
 20
370
 30
0.0
 40
200
  0
ENDSEC
  0
EOF
