  0
SECTION
  2
ENTITIES
  0
ARC
  8
0
 10
-79.0984
 20
305.0359
 30
0.0
 40
336.9876
 50
295.1516
 51
351.2893
  0
ARC
  8
0
 10
207.3477
 20
-305.0388
 30
0.0
 40
336.9876
 50
115.1513
 51
171.289
  0
ARC
  8
0
 10
-458.8539
 20
-202.9648
 30
0.0
 40
336.9876
 50
295.1516
 51
351.2893
  0
ARC
  8
0
 10
-172.4078
 20
-813.0397
 30
0.0
 40
336.9876
 50
115.1513
 51
171.289
  0
ARC
  8
0
 10
-172.4078
 20
-710.962
 30
0.0
 40
336.9876
 50
188.7111
 51
244.8488
  0
ARC
  8
0
 10
-458.8539
 20
-1321.037
 30
0.0
 40
336.9876
 50
8.710964
 51
64.84867
  0
ARC
  8
0
 10
207.3477
 20
-1218.963
 30
0.0
 40
336.9876
 50
188.7111
 51
244.8488
  0
ARC
  8
0
 10
-79.09842
 20
-1829.038
 30
0.0
 40
336.9876
 50
8.710987
 51
64.84867
  0
CIRCLE
  8
0
 10
1000
 20
6000
 30
0.0
 40
100
  0
CIRCLE
  8
0
 10
1000
 20
8000
 30
0.0
 40
100
  0
CIRCLE
  8
0
 10
2500
 20
6000
 30
0.0
 40
100
  0
CIRCLE
  8
0
 10
2500
 20
8000
 30
0.0
 40
100
  0
CIRCLE
  8
0
 10
4000
 20
6000
 30
0.0
 40
100
  0
CIRCLE
  8
0
 10
4000
 20
8000
 30
0.0
 40
100
  0
CIRCLE
  8
0
 10
100
 20
100
 30
0.0
 40
125
  0
CIRCLE
  8
0
 10
200
 20
200
 30
0.0
 40
200
  0
CIRCLE
  8
0
 10
300
 20
300
 30
0.0
 40
200
  0
CIRCLE
  8
0
 10
350
 20
350
 30
0.0
 40
200
  0
CIRCLE
  8
0
 10
360
 20
360
 30
0.0
 40
200
  0
CIRCLE
  8
0
 10
370
 20
370
 30
0.0
 40
200
  0
ENDSEC
  0
EOF
